ISO-10303-21;
HEADER;
FILE_DESCRIPTION(('STEP AP214'),'1');
FILE_NAME('standard_5_nbv_1000.stp','2021-06-25T06:25:58',('TraceParts'),('TraceParts S.A.'),'Spatial InterOp 3D',' ',' ');
FILE_SCHEMA(('AUTOMOTIVE_DESIGN { 1 0 10303 214 1 1 1 1 }'));
ENDSEC;
DATA;
#1=PRODUCT_DEFINITION_CONTEXT('',#9,'design');
#2=APPLICATION_PROTOCOL_DEFINITION('INTERNATIONAL STANDARD','automotive_design',1994,#9);
#3=PRODUCT_CATEGORY_RELATIONSHIP('NONE','NONE',#10,#11);
#4=SHAPE_DEFINITION_REPRESENTATION(#12,#13);
#5= (GEOMETRIC_REPRESENTATION_CONTEXT(3)GLOBAL_UNCERTAINTY_ASSIGNED_CONTEXT((#16))GLOBAL_UNIT_ASSIGNED_CONTEXT((#18,#19,#20))REPRESENTATION_CONTEXT('NONE','WORKSPACE'));
#9=APPLICATION_CONTEXT(' ');
#10=PRODUCT_CATEGORY('part','NONE');
#11=PRODUCT_RELATED_PRODUCT_CATEGORY('detail',' ',(#22));
#12=PRODUCT_DEFINITION_SHAPE('NONE','NONE',#23);
#13=ADVANCED_BREP_SHAPE_REPRESENTATION('standard_5_nbv_1000',(#24,#25),#5);
#16=UNCERTAINTY_MEASURE_WITH_UNIT(LENGTH_MEASURE(1.0E-06),#18,'','');
#18= (CONVERSION_BASED_UNIT('MILLIMETRE',#28)LENGTH_UNIT()NAMED_UNIT(#31));
#19= (NAMED_UNIT(#33)PLANE_ANGLE_UNIT()SI_UNIT($,.RADIAN.));
#20= (NAMED_UNIT(#33)SOLID_ANGLE_UNIT()SI_UNIT($,.STERADIAN.));
#22=PRODUCT('standard_5_nbv_1000','standard_5_nbv_1000','PART-standard_5_nbv_1000-DESC',(#39));
#23=PRODUCT_DEFINITION('','NONE',#40,#1);
#24=MANIFOLD_SOLID_BREP('standard_5_nbv_1000',#41);
#25=AXIS2_PLACEMENT_3D('',#42,#43,#44);
#28=LENGTH_MEASURE_WITH_UNIT(LENGTH_MEASURE(1.0),#45);
#31=DIMENSIONAL_EXPONENTS(1.0,0.0,0.0,0.0,0.0,0.0,0.0);
#33=DIMENSIONAL_EXPONENTS(0.0,0.0,0.0,0.0,0.0,0.0,0.0);
#39=PRODUCT_CONTEXT('',#9,'mechanical');
#40=PRODUCT_DEFINITION_FORMATION_WITH_SPECIFIED_SOURCE(' ','NONE',#22,.NOT_KNOWN.);
#41=CLOSED_SHELL('',(#46,#47,#48,#49,#50,#51,#52,#53,#54,#55,#56,#57,#58,#59,#60,#61,#62,#63,#64,#65,#66,#67));
#42=CARTESIAN_POINT('',(0.0,0.0,0.0));
#43=DIRECTION('',(0.0,0.0,1.0));
#44=DIRECTION('',(1.0,0.0,0.0));
#45= (NAMED_UNIT(#31)LENGTH_UNIT()SI_UNIT(.MILLI.,.METRE.));
#46=ADVANCED_FACE('',(#69),#70,.T.);
#47=ADVANCED_FACE('',(#71),#72,.T.);
#48=ADVANCED_FACE('',(#73),#74,.T.);
#49=ADVANCED_FACE('',(#75),#76,.F.);
#50=ADVANCED_FACE('',(#77),#78,.T.);
#51=ADVANCED_FACE('',(#79),#80,.F.);
#52=ADVANCED_FACE('',(#81),#82,.T.);
#53=ADVANCED_FACE('',(#83),#84,.F.);
#54=ADVANCED_FACE('',(#85),#86,.T.);
#55=ADVANCED_FACE('',(#87),#88,.F.);
#56=ADVANCED_FACE('',(#89),#90,.T.);
#57=ADVANCED_FACE('',(#91),#92,.T.);
#58=ADVANCED_FACE('',(#93),#94,.T.);
#59=ADVANCED_FACE('',(#95),#96,.T.);
#60=ADVANCED_FACE('',(#97),#98,.T.);
#61=ADVANCED_FACE('',(#99),#100,.T.);
#62=ADVANCED_FACE('',(#101),#102,.T.);
#63=ADVANCED_FACE('',(#103),#104,.T.);
#64=ADVANCED_FACE('',(#105),#106,.T.);
#65=ADVANCED_FACE('',(#107),#108,.T.);
#66=ADVANCED_FACE('',(#109),#110,.T.);
#67=ADVANCED_FACE('',(#111),#112,.F.);
#69=FACE_OUTER_BOUND('',#113,.T.);
#70=PLANE('',#114);
#71=FACE_OUTER_BOUND('',#115,.T.);
#72=CYLINDRICAL_SURFACE('',#116,3.0);
#73=FACE_OUTER_BOUND('',#117,.T.);
#74=PLANE('',#118);
#75=FACE_OUTER_BOUND('',#119,.T.);
#76=CYLINDRICAL_SURFACE('',#120,5.0);
#77=FACE_OUTER_BOUND('',#121,.T.);
#78=PLANE('',#122);
#79=FACE_OUTER_BOUND('',#123,.T.);
#80=CYLINDRICAL_SURFACE('',#124,5.0);
#81=FACE_OUTER_BOUND('',#125,.T.);
#82=PLANE('',#126);
#83=FACE_OUTER_BOUND('',#127,.T.);
#84=CYLINDRICAL_SURFACE('',#128,5.0);
#85=FACE_OUTER_BOUND('',#129,.T.);
#86=PLANE('',#130);
#87=FACE_OUTER_BOUND('',#131,.T.);
#88=CYLINDRICAL_SURFACE('',#132,5.0);
#89=FACE_OUTER_BOUND('',#133,.T.);
#90=PLANE('',#134);
#91=FACE_OUTER_BOUND('',#135,.T.);
#92=CYLINDRICAL_SURFACE('',#136,3.0);
#93=FACE_OUTER_BOUND('',#137,.T.);
#94=PLANE('',#138);
#95=FACE_OUTER_BOUND('',#139,.T.);
#96=CYLINDRICAL_SURFACE('',#140,6.0);
#97=FACE_OUTER_BOUND('',#141,.T.);
#98=PLANE('',#142);
#99=FACE_OUTER_BOUND('',#143,.T.);
#100=CYLINDRICAL_SURFACE('',#144,6.0);
#101=FACE_OUTER_BOUND('',#145,.T.);
#102=PLANE('',#146);
#103=FACE_OUTER_BOUND('',#147,.T.);
#104=CYLINDRICAL_SURFACE('',#148,6.0);
#105=FACE_OUTER_BOUND('',#149,.T.);
#106=PLANE('',#150);
#107=FACE_OUTER_BOUND('',#151,.T.);
#108=CYLINDRICAL_SURFACE('',#152,6.0);
#109=FACE_OUTER_BOUND('',#153,.T.);
#110=PLANE('',#154);
#111=FACE_OUTER_BOUND('',#155,.T.);
#112=PLANE('',#156);
#113=EDGE_LOOP('',(#157,#158,#159,#160));
#114=AXIS2_PLACEMENT_3D('',#161,#162,#163);
#115=EDGE_LOOP('',(#164,#165,#166,#167));
#116=AXIS2_PLACEMENT_3D('',#168,#169,#170);
#117=EDGE_LOOP('',(#171,#172,#173,#174));
#118=AXIS2_PLACEMENT_3D('',#175,#176,#177);
#119=EDGE_LOOP('',(#178,#179,#180,#181));
#120=AXIS2_PLACEMENT_3D('',#182,#183,#184);
#121=EDGE_LOOP('',(#185,#186,#187,#188));
#122=AXIS2_PLACEMENT_3D('',#189,#190,#191);
#123=EDGE_LOOP('',(#192,#193,#194,#195));
#124=AXIS2_PLACEMENT_3D('',#196,#197,#198);
#125=EDGE_LOOP('',(#199,#200,#201,#202));
#126=AXIS2_PLACEMENT_3D('',#203,#204,#205);
#127=EDGE_LOOP('',(#206,#207,#208,#209));
#128=AXIS2_PLACEMENT_3D('',#210,#211,#212);
#129=EDGE_LOOP('',(#213,#214,#215,#216));
#130=AXIS2_PLACEMENT_3D('',#217,#218,#219);
#131=EDGE_LOOP('',(#220,#221,#222,#223));
#132=AXIS2_PLACEMENT_3D('',#224,#225,#226);
#133=EDGE_LOOP('',(#227,#228,#229,#230));
#134=AXIS2_PLACEMENT_3D('',#231,#232,#233);
#135=EDGE_LOOP('',(#234,#235,#236,#237));
#136=AXIS2_PLACEMENT_3D('',#238,#239,#240);
#137=EDGE_LOOP('',(#241,#242,#243,#244));
#138=AXIS2_PLACEMENT_3D('',#245,#246,#247);
#139=EDGE_LOOP('',(#248,#249,#250,#251));
#140=AXIS2_PLACEMENT_3D('',#252,#253,#254);
#141=EDGE_LOOP('',(#255,#256,#257,#258));
#142=AXIS2_PLACEMENT_3D('',#259,#260,#261);
#143=EDGE_LOOP('',(#262,#263,#264,#265));
#144=AXIS2_PLACEMENT_3D('',#266,#267,#268);
#145=EDGE_LOOP('',(#269,#270,#271,#272));
#146=AXIS2_PLACEMENT_3D('',#273,#274,#275);
#147=EDGE_LOOP('',(#276,#277,#278,#279));
#148=AXIS2_PLACEMENT_3D('',#280,#281,#282);
#149=EDGE_LOOP('',(#283,#284,#285,#286));
#150=AXIS2_PLACEMENT_3D('',#287,#288,#289);
#151=EDGE_LOOP('',(#290,#291,#292,#293));
#152=AXIS2_PLACEMENT_3D('',#294,#295,#296);
#153=EDGE_LOOP('',(#297,#298,#299,#300,#301,#302,#303,#304,#305,#306,#307,#308,#309,#310,#311,#312,#313,#314,#315,#316));
#154=AXIS2_PLACEMENT_3D('',#317,#318,#319);
#155=EDGE_LOOP('',(#320,#321,#322,#323,#324,#325,#326,#327,#328,#329,#330,#331,#332,#333,#334,#335,#336,#337,#338,#339));
#156=AXIS2_PLACEMENT_3D('',#340,#341,#342);
#157=ORIENTED_EDGE('',*,*,#343,.T.);
#158=ORIENTED_EDGE('',*,*,#344,.F.);
#159=ORIENTED_EDGE('',*,*,#345,.T.);
#160=ORIENTED_EDGE('',*,*,#346,.T.);
#161=CARTESIAN_POINT('',(-73.2,66.2,0.0));
#162=DIRECTION('',(0.0,1.0,-0.0));
#163=DIRECTION('',(-1.0,0.0,0.0));
#164=ORIENTED_EDGE('',*,*,#347,.T.);
#165=ORIENTED_EDGE('',*,*,#348,.F.);
#166=ORIENTED_EDGE('',*,*,#349,.T.);
#167=ORIENTED_EDGE('',*,*,#344,.T.);
#168=CARTESIAN_POINT('',(-64.9,63.2,0.0));
#169=DIRECTION('',(0.0,0.0,1.0));
#170=DIRECTION('',(1.0,0.0,0.0));
#171=ORIENTED_EDGE('',*,*,#350,.T.);
#172=ORIENTED_EDGE('',*,*,#351,.F.);
#173=ORIENTED_EDGE('',*,*,#352,.T.);
#174=ORIENTED_EDGE('',*,*,#348,.T.);
#175=CARTESIAN_POINT('',(-61.9,44.00189805015,0.0));
#176=DIRECTION('',(1.0,-1.85055464757976E-16,0.0));
#177=DIRECTION('',(1.85055464757976E-16,1.0,0.0));
#178=ORIENTED_EDGE('',*,*,#353,.T.);
#179=ORIENTED_EDGE('',*,*,#354,.F.);
#180=ORIENTED_EDGE('',*,*,#355,.F.);
#181=ORIENTED_EDGE('',*,*,#351,.T.);
#182=CARTESIAN_POINT('',(-56.9,24.8037961003,0.0));
#183=DIRECTION('',(0.0,0.0,1.0));
#184=DIRECTION('',(1.0,0.0,0.0));
#185=ORIENTED_EDGE('',*,*,#356,.T.);
#186=ORIENTED_EDGE('',*,*,#357,.F.);
#187=ORIENTED_EDGE('',*,*,#358,.T.);
#188=ORIENTED_EDGE('',*,*,#354,.T.);
#189=CARTESIAN_POINT('',(-53.075444679684,18.2584815598947,0.0));
#190=DIRECTION('',(0.316227766011572,0.948683298052269,-0.0));
#191=DIRECTION('',(-0.948683298052269,0.316227766011572,0.0));
#192=ORIENTED_EDGE('',*,*,#359,.T.);
#193=ORIENTED_EDGE('',*,*,#360,.F.);
#194=ORIENTED_EDGE('',*,*,#361,.F.);
#195=ORIENTED_EDGE('',*,*,#357,.T.);
#196=CARTESIAN_POINT('',(-46.0886116991999,21.1999999999999,0.0));
#197=DIRECTION('',(0.0,0.0,1.0));
#198=DIRECTION('',(1.0,0.0,0.0));
#199=ORIENTED_EDGE('',*,*,#362,.T.);
#200=ORIENTED_EDGE('',*,*,#363,.F.);
#201=ORIENTED_EDGE('',*,*,#364,.T.);
#202=ORIENTED_EDGE('',*,*,#360,.T.);
#203=CARTESIAN_POINT('',(4.2632564145606E-14,16.1999999999999,0.0));
#204=DIRECTION('',(7.70844151693589E-17,1.0,-0.0));
#205=DIRECTION('',(-1.0,7.70844151693589E-17,0.0));
#206=ORIENTED_EDGE('',*,*,#365,.T.);
#207=ORIENTED_EDGE('',*,*,#366,.F.);
#208=ORIENTED_EDGE('',*,*,#367,.F.);
#209=ORIENTED_EDGE('',*,*,#363,.T.);
#210=CARTESIAN_POINT('',(46.0886116992,21.1999999999999,0.0));
#211=DIRECTION('',(0.0,0.0,1.0));
#212=DIRECTION('',(1.0,0.0,0.0));
#213=ORIENTED_EDGE('',*,*,#368,.T.);
#214=ORIENTED_EDGE('',*,*,#369,.F.);
#215=ORIENTED_EDGE('',*,*,#370,.T.);
#216=ORIENTED_EDGE('',*,*,#366,.T.);
#217=CARTESIAN_POINT('',(53.0754446796491,18.2584815598997,0.0));
#218=DIRECTION('',(-0.31622776600894,0.948683298053147,0.0));
#219=DIRECTION('',(-0.948683298053147,-0.31622776600894,0.0));
#220=ORIENTED_EDGE('',*,*,#371,.T.);
#221=ORIENTED_EDGE('',*,*,#372,.F.);
#222=ORIENTED_EDGE('',*,*,#373,.F.);
#223=ORIENTED_EDGE('',*,*,#369,.T.);
#224=CARTESIAN_POINT('',(56.9,24.8037961003,0.0));
#225=DIRECTION('',(0.0,0.0,1.0));
#226=DIRECTION('',(1.0,0.0,0.0));
#227=ORIENTED_EDGE('',*,*,#374,.T.);
#228=ORIENTED_EDGE('',*,*,#375,.F.);
#229=ORIENTED_EDGE('',*,*,#376,.T.);
#230=ORIENTED_EDGE('',*,*,#372,.T.);
#231=CARTESIAN_POINT('',(61.9,44.00189805015,0.0));
#232=DIRECTION('',(-1.0,1.85055464757976E-16,0.0));
#233=DIRECTION('',(-1.85055464757976E-16,-1.0,0.0));
#234=ORIENTED_EDGE('',*,*,#377,.T.);
#235=ORIENTED_EDGE('',*,*,#378,.F.);
#236=ORIENTED_EDGE('',*,*,#379,.T.);
#237=ORIENTED_EDGE('',*,*,#375,.T.);
#238=CARTESIAN_POINT('',(64.9,63.2,0.0));
#239=DIRECTION('',(0.0,0.0,1.0));
#240=DIRECTION('',(1.0,0.0,0.0));
#241=ORIENTED_EDGE('',*,*,#380,.T.);
#242=ORIENTED_EDGE('',*,*,#381,.F.);
#243=ORIENTED_EDGE('',*,*,#382,.T.);
#244=ORIENTED_EDGE('',*,*,#378,.T.);
#245=CARTESIAN_POINT('',(73.2,66.2,0.0));
#246=DIRECTION('',(0.0,1.0,-0.0));
#247=DIRECTION('',(-1.0,0.0,0.0));
#248=ORIENTED_EDGE('',*,*,#383,.T.);
#249=ORIENTED_EDGE('',*,*,#384,.F.);
#250=ORIENTED_EDGE('',*,*,#385,.T.);
#251=ORIENTED_EDGE('',*,*,#381,.T.);
#252=CARTESIAN_POINT('',(81.5,60.2,0.0));
#253=DIRECTION('',(0.0,0.0,1.0));
#254=DIRECTION('',(1.0,0.0,0.0));
#255=ORIENTED_EDGE('',*,*,#386,.T.);
#256=ORIENTED_EDGE('',*,*,#387,.F.);
#257=ORIENTED_EDGE('',*,*,#388,.T.);
#258=ORIENTED_EDGE('',*,*,#384,.T.);
#259=CARTESIAN_POINT('',(87.5,33.1,0.0));
#260=DIRECTION('',(1.0,0.0,0.0));
#261=DIRECTION('',(0.0,1.0,0.0));
#262=ORIENTED_EDGE('',*,*,#389,.T.);
#263=ORIENTED_EDGE('',*,*,#390,.F.);
#264=ORIENTED_EDGE('',*,*,#391,.T.);
#265=ORIENTED_EDGE('',*,*,#387,.T.);
#266=CARTESIAN_POINT('',(81.5,5.99999999999999,0.0));
#267=DIRECTION('',(0.0,0.0,1.0));
#268=DIRECTION('',(1.0,0.0,0.0));
#269=ORIENTED_EDGE('',*,*,#392,.T.);
#270=ORIENTED_EDGE('',*,*,#393,.F.);
#271=ORIENTED_EDGE('',*,*,#394,.T.);
#272=ORIENTED_EDGE('',*,*,#390,.T.);
#273=CARTESIAN_POINT('',(0.0,0.0,0.0));
#274=DIRECTION('',(-6.12303176911189E-17,-1.0,0.0));
#275=DIRECTION('',(1.0,-6.12303176911189E-17,0.0));
#276=ORIENTED_EDGE('',*,*,#395,.T.);
#277=ORIENTED_EDGE('',*,*,#396,.F.);
#278=ORIENTED_EDGE('',*,*,#397,.T.);
#279=ORIENTED_EDGE('',*,*,#393,.T.);
#280=CARTESIAN_POINT('',(-81.5,6.00000000000001,0.0));
#281=DIRECTION('',(0.0,0.0,1.0));
#282=DIRECTION('',(1.0,0.0,0.0));
#283=ORIENTED_EDGE('',*,*,#398,.T.);
#284=ORIENTED_EDGE('',*,*,#399,.F.);
#285=ORIENTED_EDGE('',*,*,#400,.T.);
#286=ORIENTED_EDGE('',*,*,#396,.T.);
#287=CARTESIAN_POINT('',(-87.5,33.1,0.0));
#288=DIRECTION('',(-1.0,0.0,0.0));
#289=DIRECTION('',(0.0,-1.0,0.0));
#290=ORIENTED_EDGE('',*,*,#401,.T.);
#291=ORIENTED_EDGE('',*,*,#346,.F.);
#292=ORIENTED_EDGE('',*,*,#402,.T.);
#293=ORIENTED_EDGE('',*,*,#399,.T.);
#294=CARTESIAN_POINT('',(-81.5,60.2,0.0));
#295=DIRECTION('',(0.0,0.0,1.0));
#296=DIRECTION('',(1.0,0.0,0.0));
#297=ORIENTED_EDGE('',*,*,#343,.F.);
#298=ORIENTED_EDGE('',*,*,#401,.F.);
#299=ORIENTED_EDGE('',*,*,#398,.F.);
#300=ORIENTED_EDGE('',*,*,#395,.F.);
#301=ORIENTED_EDGE('',*,*,#392,.F.);
#302=ORIENTED_EDGE('',*,*,#389,.F.);
#303=ORIENTED_EDGE('',*,*,#386,.F.);
#304=ORIENTED_EDGE('',*,*,#383,.F.);
#305=ORIENTED_EDGE('',*,*,#380,.F.);
#306=ORIENTED_EDGE('',*,*,#377,.F.);
#307=ORIENTED_EDGE('',*,*,#374,.F.);
#308=ORIENTED_EDGE('',*,*,#371,.F.);
#309=ORIENTED_EDGE('',*,*,#368,.F.);
#310=ORIENTED_EDGE('',*,*,#365,.F.);
#311=ORIENTED_EDGE('',*,*,#362,.F.);
#312=ORIENTED_EDGE('',*,*,#359,.F.);
#313=ORIENTED_EDGE('',*,*,#356,.F.);
#314=ORIENTED_EDGE('',*,*,#353,.F.);
#315=ORIENTED_EDGE('',*,*,#350,.F.);
#316=ORIENTED_EDGE('',*,*,#347,.F.);
#317=CARTESIAN_POINT('',(-9.45910016980633E-14,23.7196978725814,1000.0));
#318=DIRECTION('',(0.0,0.0,1.0));
#319=DIRECTION('',(1.0,0.0,0.0));
#320=ORIENTED_EDGE('',*,*,#402,.F.);
#321=ORIENTED_EDGE('',*,*,#345,.F.);
#322=ORIENTED_EDGE('',*,*,#349,.F.);
#323=ORIENTED_EDGE('',*,*,#352,.F.);
#324=ORIENTED_EDGE('',*,*,#355,.T.);
#325=ORIENTED_EDGE('',*,*,#358,.F.);
#326=ORIENTED_EDGE('',*,*,#361,.T.);
#327=ORIENTED_EDGE('',*,*,#364,.F.);
#328=ORIENTED_EDGE('',*,*,#367,.T.);
#329=ORIENTED_EDGE('',*,*,#370,.F.);
#330=ORIENTED_EDGE('',*,*,#373,.T.);
#331=ORIENTED_EDGE('',*,*,#376,.F.);
#332=ORIENTED_EDGE('',*,*,#379,.F.);
#333=ORIENTED_EDGE('',*,*,#382,.F.);
#334=ORIENTED_EDGE('',*,*,#385,.F.);
#335=ORIENTED_EDGE('',*,*,#388,.F.);
#336=ORIENTED_EDGE('',*,*,#391,.F.);
#337=ORIENTED_EDGE('',*,*,#394,.F.);
#338=ORIENTED_EDGE('',*,*,#397,.F.);
#339=ORIENTED_EDGE('',*,*,#400,.F.);
#340=CARTESIAN_POINT('',(-9.45910016980633E-14,23.7196978725814,0.0));
#341=DIRECTION('',(0.0,0.0,1.0));
#342=DIRECTION('',(1.0,0.0,0.0));
#343=EDGE_CURVE('',#403,#404,#405,.T.);
#344=EDGE_CURVE('',#406,#404,#407,.T.);
#345=EDGE_CURVE('',#406,#408,#409,.T.);
#346=EDGE_CURVE('',#408,#403,#410,.T.);
#347=EDGE_CURVE('',#404,#411,#412,.T.);
#348=EDGE_CURVE('',#413,#411,#414,.T.);
#349=EDGE_CURVE('',#413,#406,#415,.T.);
#350=EDGE_CURVE('',#411,#416,#417,.T.);
#351=EDGE_CURVE('',#418,#416,#419,.T.);
#352=EDGE_CURVE('',#418,#413,#420,.T.);
#353=EDGE_CURVE('',#416,#421,#422,.T.);
#354=EDGE_CURVE('',#423,#421,#424,.T.);
#355=EDGE_CURVE('',#418,#423,#425,.T.);
#356=EDGE_CURVE('',#421,#426,#427,.T.);
#357=EDGE_CURVE('',#428,#426,#429,.T.);
#358=EDGE_CURVE('',#428,#423,#430,.T.);
#359=EDGE_CURVE('',#426,#431,#432,.T.);
#360=EDGE_CURVE('',#433,#431,#434,.T.);
#361=EDGE_CURVE('',#428,#433,#435,.T.);
#362=EDGE_CURVE('',#431,#436,#437,.T.);
#363=EDGE_CURVE('',#438,#436,#439,.T.);
#364=EDGE_CURVE('',#438,#433,#440,.T.);
#365=EDGE_CURVE('',#436,#441,#442,.T.);
#366=EDGE_CURVE('',#443,#441,#444,.T.);
#367=EDGE_CURVE('',#438,#443,#445,.T.);
#368=EDGE_CURVE('',#441,#446,#447,.T.);
#369=EDGE_CURVE('',#448,#446,#449,.T.);
#370=EDGE_CURVE('',#448,#443,#450,.T.);
#371=EDGE_CURVE('',#446,#451,#452,.T.);
#372=EDGE_CURVE('',#453,#451,#454,.T.);
#373=EDGE_CURVE('',#448,#453,#455,.T.);
#374=EDGE_CURVE('',#451,#456,#457,.T.);
#375=EDGE_CURVE('',#458,#456,#459,.T.);
#376=EDGE_CURVE('',#458,#453,#460,.T.);
#377=EDGE_CURVE('',#456,#461,#462,.T.);
#378=EDGE_CURVE('',#463,#461,#464,.T.);
#379=EDGE_CURVE('',#463,#458,#465,.T.);
#380=EDGE_CURVE('',#461,#466,#467,.T.);
#381=EDGE_CURVE('',#468,#466,#469,.T.);
#382=EDGE_CURVE('',#468,#463,#470,.T.);
#383=EDGE_CURVE('',#466,#471,#472,.T.);
#384=EDGE_CURVE('',#473,#471,#474,.T.);
#385=EDGE_CURVE('',#473,#468,#475,.T.);
#386=EDGE_CURVE('',#471,#476,#477,.T.);
#387=EDGE_CURVE('',#478,#476,#479,.T.);
#388=EDGE_CURVE('',#478,#473,#480,.T.);
#389=EDGE_CURVE('',#476,#481,#482,.T.);
#390=EDGE_CURVE('',#483,#481,#484,.T.);
#391=EDGE_CURVE('',#483,#478,#485,.T.);
#392=EDGE_CURVE('',#481,#486,#487,.T.);
#393=EDGE_CURVE('',#488,#486,#489,.T.);
#394=EDGE_CURVE('',#488,#483,#490,.T.);
#395=EDGE_CURVE('',#486,#491,#492,.T.);
#396=EDGE_CURVE('',#493,#491,#494,.T.);
#397=EDGE_CURVE('',#493,#488,#495,.T.);
#398=EDGE_CURVE('',#491,#496,#497,.T.);
#399=EDGE_CURVE('',#498,#496,#499,.T.);
#400=EDGE_CURVE('',#498,#493,#500,.T.);
#401=EDGE_CURVE('',#496,#403,#501,.T.);
#402=EDGE_CURVE('',#408,#498,#502,.T.);
#403=VERTEX_POINT('',#503);
#404=VERTEX_POINT('',#504);
#405=LINE('',#505,#506);
#406=VERTEX_POINT('',#507);
#407=LINE('',#508,#509);
#408=VERTEX_POINT('',#510);
#409=LINE('',#511,#512);
#410=LINE('',#513,#514);
#411=VERTEX_POINT('',#515);
#412=CIRCLE('',#516,3.0);
#413=VERTEX_POINT('',#517);
#414=LINE('',#518,#519);
#415=CIRCLE('',#520,3.0);
#416=VERTEX_POINT('',#521);
#417=LINE('',#522,#523);
#418=VERTEX_POINT('',#524);
#419=LINE('',#525,#526);
#420=LINE('',#527,#528);
#421=VERTEX_POINT('',#529);
#422=CIRCLE('',#530,5.0);
#423=VERTEX_POINT('',#531);
#424=LINE('',#532,#533);
#425=CIRCLE('',#534,5.0);
#426=VERTEX_POINT('',#535);
#427=LINE('',#536,#537);
#428=VERTEX_POINT('',#538);
#429=LINE('',#539,#540);
#430=LINE('',#541,#542);
#431=VERTEX_POINT('',#543);
#432=CIRCLE('',#544,5.0);
#433=VERTEX_POINT('',#545);
#434=LINE('',#546,#547);
#435=CIRCLE('',#548,5.0);
#436=VERTEX_POINT('',#549);
#437=LINE('',#550,#551);
#438=VERTEX_POINT('',#552);
#439=LINE('',#553,#554);
#440=LINE('',#555,#556);
#441=VERTEX_POINT('',#557);
#442=CIRCLE('',#558,5.0);
#443=VERTEX_POINT('',#559);
#444=LINE('',#560,#561);
#445=CIRCLE('',#562,5.0);
#446=VERTEX_POINT('',#563);
#447=LINE('',#564,#565);
#448=VERTEX_POINT('',#566);
#449=LINE('',#567,#568);
#450=LINE('',#569,#570);
#451=VERTEX_POINT('',#571);
#452=CIRCLE('',#572,5.0);
#453=VERTEX_POINT('',#573);
#454=LINE('',#574,#575);
#455=CIRCLE('',#576,5.0);
#456=VERTEX_POINT('',#577);
#457=LINE('',#578,#579);
#458=VERTEX_POINT('',#580);
#459=LINE('',#581,#582);
#460=LINE('',#583,#584);
#461=VERTEX_POINT('',#585);
#462=CIRCLE('',#586,3.0);
#463=VERTEX_POINT('',#587);
#464=LINE('',#588,#589);
#465=CIRCLE('',#590,3.0);
#466=VERTEX_POINT('',#591);
#467=LINE('',#592,#593);
#468=VERTEX_POINT('',#594);
#469=LINE('',#595,#596);
#470=LINE('',#597,#598);
#471=VERTEX_POINT('',#599);
#472=CIRCLE('',#600,6.0);
#473=VERTEX_POINT('',#601);
#474=LINE('',#602,#603);
#475=CIRCLE('',#604,6.0);
#476=VERTEX_POINT('',#605);
#477=LINE('',#606,#607);
#478=VERTEX_POINT('',#608);
#479=LINE('',#609,#610);
#480=LINE('',#611,#612);
#481=VERTEX_POINT('',#613);
#482=CIRCLE('',#614,6.0);
#483=VERTEX_POINT('',#615);
#484=LINE('',#616,#617);
#485=CIRCLE('',#618,6.0);
#486=VERTEX_POINT('',#619);
#487=LINE('',#620,#621);
#488=VERTEX_POINT('',#622);
#489=LINE('',#623,#624);
#490=LINE('',#625,#626);
#491=VERTEX_POINT('',#627);
#492=CIRCLE('',#628,6.0);
#493=VERTEX_POINT('',#629);
#494=LINE('',#630,#631);
#495=CIRCLE('',#632,6.0);
#496=VERTEX_POINT('',#633);
#497=LINE('',#634,#635);
#498=VERTEX_POINT('',#636);
#499=LINE('',#637,#638);
#500=LINE('',#639,#640);
#501=CIRCLE('',#641,6.0);
#502=CIRCLE('',#642,6.0);
#503=CARTESIAN_POINT('',(-81.5,66.2,1000.0));
#504=CARTESIAN_POINT('',(-64.9,66.2,1000.0));
#505=CARTESIAN_POINT('',(-64.9,66.2,1000.0));
#506=VECTOR('',#643,1.0);
#507=CARTESIAN_POINT('',(-64.9,66.2,0.0));
#508=CARTESIAN_POINT('',(-64.9,66.2,0.0));
#509=VECTOR('',#644,1.0);
#510=CARTESIAN_POINT('',(-81.5,66.2,0.0));
#511=CARTESIAN_POINT('',(-64.9,66.2,0.0));
#512=VECTOR('',#645,1.0);
#513=CARTESIAN_POINT('',(-81.5,66.2,0.0));
#514=VECTOR('',#646,1.0);
#515=CARTESIAN_POINT('',(-61.9,63.2,1000.0));
#516=AXIS2_PLACEMENT_3D('',#647,#648,#649);
#517=CARTESIAN_POINT('',(-61.9,63.2,0.0));
#518=CARTESIAN_POINT('',(-61.9,63.2,0.0));
#519=VECTOR('',#650,1.0);
#520=AXIS2_PLACEMENT_3D('',#651,#652,#653);
#521=CARTESIAN_POINT('',(-61.9,24.8037961003,1000.0));
#522=CARTESIAN_POINT('',(-61.9,24.8037961003,1000.0));
#523=VECTOR('',#654,1.0);
#524=CARTESIAN_POINT('',(-61.9,24.8037961003,0.0));
#525=CARTESIAN_POINT('',(-61.9,24.8037961003,0.0));
#526=VECTOR('',#655,1.0);
#527=CARTESIAN_POINT('',(-61.9,24.8037961003,0.0));
#528=VECTOR('',#656,1.0);
#529=CARTESIAN_POINT('',(-58.4811388301,20.06037961,1000.0));
#530=AXIS2_PLACEMENT_3D('',#657,#658,#659);
#531=CARTESIAN_POINT('',(-58.4811388301,20.06037961,0.0));
#532=CARTESIAN_POINT('',(-58.4811388301,20.06037961,0.0));
#533=VECTOR('',#660,1.0);
#534=AXIS2_PLACEMENT_3D('',#661,#662,#663);
#535=CARTESIAN_POINT('',(-47.6697505292822,16.4565835097467,1000.0));
#536=CARTESIAN_POINT('',(-47.6697505293,16.4565835098,1000.0));
#537=VECTOR('',#664,1.0);
#538=CARTESIAN_POINT('',(-47.6697505292822,16.4565835097467,0.0));
#539=CARTESIAN_POINT('',(-47.6697505292822,16.4565835097467,0.0));
#540=VECTOR('',#665,1.0);
#541=CARTESIAN_POINT('',(-47.6697505293,16.4565835098,0.0));
#542=VECTOR('',#666,1.0);
#543=CARTESIAN_POINT('',(-46.0886116991999,16.1999999999999,1000.0));
#544=AXIS2_PLACEMENT_3D('',#667,#668,#669);
#545=CARTESIAN_POINT('',(-46.0886116991999,16.1999999999999,0.0));
#546=CARTESIAN_POINT('',(-46.0886116991999,16.1999999999999,0.0));
#547=VECTOR('',#670,1.0);
#548=AXIS2_PLACEMENT_3D('',#671,#672,#673);
#549=CARTESIAN_POINT('',(46.0886116992,16.1999999999999,1000.0));
#550=CARTESIAN_POINT('',(46.0886116992,16.1999999999999,1000.0));
#551=VECTOR('',#674,1.0);
#552=CARTESIAN_POINT('',(46.0886116992,16.1999999999999,0.0));
#553=CARTESIAN_POINT('',(46.0886116992,16.1999999999999,0.0));
#554=VECTOR('',#675,1.0);
#555=CARTESIAN_POINT('',(46.0886116992,16.1999999999999,0.0));
#556=VECTOR('',#676,1.0);
#557=CARTESIAN_POINT('',(47.6697505292,16.4565835098,1000.0));
#558=AXIS2_PLACEMENT_3D('',#677,#678,#679);
#559=CARTESIAN_POINT('',(47.6697505292,16.4565835098,0.0));
#560=CARTESIAN_POINT('',(47.6697505292,16.4565835098,0.0));
#561=VECTOR('',#680,1.0);
#562=AXIS2_PLACEMENT_3D('',#681,#682,#683);
#563=CARTESIAN_POINT('',(58.4811388300823,20.0603796100468,1000.0));
#564=CARTESIAN_POINT('',(58.4811388301,20.06037961,1000.0));
#565=VECTOR('',#684,1.0);
#566=CARTESIAN_POINT('',(58.4811388300823,20.0603796100468,0.0));
#567=CARTESIAN_POINT('',(58.4811388300823,20.0603796100468,0.0));
#568=VECTOR('',#685,1.0);
#569=CARTESIAN_POINT('',(58.4811388301,20.06037961,0.0));
#570=VECTOR('',#686,1.0);
#571=CARTESIAN_POINT('',(61.9,24.8037961003,1000.0));
#572=AXIS2_PLACEMENT_3D('',#687,#688,#689);
#573=CARTESIAN_POINT('',(61.9,24.8037961003,0.0));
#574=CARTESIAN_POINT('',(61.9,24.8037961003,0.0));
#575=VECTOR('',#690,1.0);
#576=AXIS2_PLACEMENT_3D('',#691,#692,#693);
#577=CARTESIAN_POINT('',(61.9,63.2,1000.0));
#578=CARTESIAN_POINT('',(61.9,63.2,1000.0));
#579=VECTOR('',#694,1.0);
#580=CARTESIAN_POINT('',(61.9,63.2,0.0));
#581=CARTESIAN_POINT('',(61.9,63.2,0.0));
#582=VECTOR('',#695,1.0);
#583=CARTESIAN_POINT('',(61.9,63.2,0.0));
#584=VECTOR('',#696,1.0);
#585=CARTESIAN_POINT('',(64.9,66.2,1000.0));
#586=AXIS2_PLACEMENT_3D('',#697,#698,#699);
#587=CARTESIAN_POINT('',(64.9,66.2,0.0));
#588=CARTESIAN_POINT('',(64.9,66.2,0.0));
#589=VECTOR('',#700,1.0);
#590=AXIS2_PLACEMENT_3D('',#701,#702,#703);
#591=CARTESIAN_POINT('',(81.5,66.2,1000.0));
#592=CARTESIAN_POINT('',(81.5,66.2,1000.0));
#593=VECTOR('',#704,1.0);
#594=CARTESIAN_POINT('',(81.5,66.2,0.0));
#595=CARTESIAN_POINT('',(81.5,66.2,0.0));
#596=VECTOR('',#705,1.0);
#597=CARTESIAN_POINT('',(81.5,66.2,0.0));
#598=VECTOR('',#706,1.0);
#599=CARTESIAN_POINT('',(87.5,60.2,1000.0));
#600=AXIS2_PLACEMENT_3D('',#707,#708,#709);
#601=CARTESIAN_POINT('',(87.5,60.2,0.0));
#602=CARTESIAN_POINT('',(87.5,60.2,0.0));
#603=VECTOR('',#710,1.0);
#604=AXIS2_PLACEMENT_3D('',#711,#712,#713);
#605=CARTESIAN_POINT('',(87.5,5.99999999999999,1000.0));
#606=CARTESIAN_POINT('',(87.5,5.99999999999999,1000.0));
#607=VECTOR('',#714,1.0);
#608=CARTESIAN_POINT('',(87.5,5.99999999999999,0.0));
#609=CARTESIAN_POINT('',(87.5,5.99999999999999,0.0));
#610=VECTOR('',#715,1.0);
#611=CARTESIAN_POINT('',(87.5,5.99999999999999,0.0));
#612=VECTOR('',#716,1.0);
#613=CARTESIAN_POINT('',(81.5,-4.99027089182619E-15,1000.0));
#614=AXIS2_PLACEMENT_3D('',#717,#718,#719);
#615=CARTESIAN_POINT('',(81.5,-4.99027089182619E-15,0.0));
#616=CARTESIAN_POINT('',(81.5,-4.99027089182619E-15,0.0));
#617=VECTOR('',#720,1.0);
#618=AXIS2_PLACEMENT_3D('',#721,#722,#723);
#619=CARTESIAN_POINT('',(-81.5,5.32907051820075E-15,1000.0));
#620=CARTESIAN_POINT('',(-81.5,4.99027089182619E-15,1000.0));
#621=VECTOR('',#724,1.0);
#622=CARTESIAN_POINT('',(-81.5,5.32907051820075E-15,0.0));
#623=CARTESIAN_POINT('',(-81.5,5.32907051820075E-15,0.0));
#624=VECTOR('',#725,1.0);
#625=CARTESIAN_POINT('',(-81.5,4.99027089182619E-15,0.0));
#626=VECTOR('',#726,1.0);
#627=CARTESIAN_POINT('',(-87.5,6.00000000000001,1000.0));
#628=AXIS2_PLACEMENT_3D('',#727,#728,#729);
#629=CARTESIAN_POINT('',(-87.5,6.00000000000001,0.0));
#630=CARTESIAN_POINT('',(-87.5,6.00000000000001,0.0));
#631=VECTOR('',#730,1.0);
#632=AXIS2_PLACEMENT_3D('',#731,#732,#733);
#633=CARTESIAN_POINT('',(-87.5,60.2,1000.0));
#634=CARTESIAN_POINT('',(-87.5,60.2,1000.0));
#635=VECTOR('',#734,1.0);
#636=CARTESIAN_POINT('',(-87.5,60.2,0.0));
#637=CARTESIAN_POINT('',(-87.5,60.2,0.0));
#638=VECTOR('',#735,1.0);
#639=CARTESIAN_POINT('',(-87.5,60.2,0.0));
#640=VECTOR('',#736,1.0);
#641=AXIS2_PLACEMENT_3D('',#737,#738,#739);
#642=AXIS2_PLACEMENT_3D('',#740,#741,#742);
#643=DIRECTION('',(1.0,0.0,0.0));
#644=DIRECTION('',(0.0,0.0,1.0));
#645=DIRECTION('',(-1.0,0.0,0.0));
#646=DIRECTION('',(0.0,0.0,1.0));
#647=CARTESIAN_POINT('',(-64.9,63.2,1000.0));
#648=DIRECTION('',(0.0,0.0,-1.0));
#649=DIRECTION('',(1.0,0.0,0.0));
#650=DIRECTION('',(0.0,0.0,1.0));
#651=CARTESIAN_POINT('',(-64.9,63.2,0.0));
#652=DIRECTION('',(0.0,0.0,1.0));
#653=DIRECTION('',(1.0,0.0,0.0));
#654=DIRECTION('',(-1.85055464757976E-16,-1.0,-0.0));
#655=DIRECTION('',(0.0,0.0,1.0));
#656=DIRECTION('',(1.85055464757976E-16,1.0,0.0));
#657=CARTESIAN_POINT('',(-56.9,24.8037961003,1000.0));
#658=DIRECTION('',(0.0,0.0,1.0));
#659=DIRECTION('',(1.0,0.0,0.0));
#660=DIRECTION('',(0.0,0.0,1.0));
#661=CARTESIAN_POINT('',(-56.9,24.8037961003,0.0));
#662=DIRECTION('',(0.0,0.0,1.0));
#663=DIRECTION('',(1.0,0.0,0.0));
#664=DIRECTION('',(0.948683298052269,-0.316227766011572,0.0));
#665=DIRECTION('',(0.0,0.0,1.0));
#666=DIRECTION('',(-0.948683298052269,0.316227766011572,0.0));
#667=CARTESIAN_POINT('',(-46.0886116991999,21.1999999999999,1000.0));
#668=DIRECTION('',(0.0,0.0,1.0));
#669=DIRECTION('',(1.0,0.0,0.0));
#670=DIRECTION('',(0.0,0.0,1.0));
#671=CARTESIAN_POINT('',(-46.0886116991999,21.1999999999999,0.0));
#672=DIRECTION('',(0.0,0.0,1.0));
#673=DIRECTION('',(1.0,0.0,0.0));
#674=DIRECTION('',(1.0,-7.70844151693589E-17,0.0));
#675=DIRECTION('',(0.0,0.0,1.0));
#676=DIRECTION('',(-1.0,7.70844151693589E-17,0.0));
#677=CARTESIAN_POINT('',(46.0886116992,21.1999999999999,1000.0));
#678=DIRECTION('',(0.0,0.0,1.0));
#679=DIRECTION('',(1.0,0.0,0.0));
#680=DIRECTION('',(0.0,0.0,1.0));
#681=CARTESIAN_POINT('',(46.0886116992,21.1999999999999,0.0));
#682=DIRECTION('',(0.0,0.0,1.0));
#683=DIRECTION('',(1.0,0.0,0.0));
#684=DIRECTION('',(0.948683298053147,0.31622776600894,0.0));
#685=DIRECTION('',(0.0,0.0,1.0));
#686=DIRECTION('',(-0.948683298053147,-0.31622776600894,0.0));
#687=CARTESIAN_POINT('',(56.9,24.8037961003,1000.0));
#688=DIRECTION('',(0.0,0.0,1.0));
#689=DIRECTION('',(1.0,0.0,0.0));
#690=DIRECTION('',(0.0,0.0,1.0));
#691=CARTESIAN_POINT('',(56.9,24.8037961003,0.0));
#692=DIRECTION('',(0.0,0.0,1.0));
#693=DIRECTION('',(1.0,0.0,0.0));
#694=DIRECTION('',(1.85055464757976E-16,1.0,0.0));
#695=DIRECTION('',(0.0,0.0,1.0));
#696=DIRECTION('',(-1.85055464757976E-16,-1.0,0.0));
#697=CARTESIAN_POINT('',(64.9,63.2,1000.0));
#698=DIRECTION('',(0.0,0.0,-1.0));
#699=DIRECTION('',(1.0,0.0,0.0));
#700=DIRECTION('',(0.0,0.0,1.0));
#701=CARTESIAN_POINT('',(64.9,63.2,0.0));
#702=DIRECTION('',(0.0,0.0,1.0));
#703=DIRECTION('',(1.0,0.0,0.0));
#704=DIRECTION('',(1.0,0.0,0.0));
#705=DIRECTION('',(0.0,0.0,1.0));
#706=DIRECTION('',(-1.0,0.0,0.0));
#707=CARTESIAN_POINT('',(81.5,60.2,1000.0));
#708=DIRECTION('',(0.0,0.0,-1.0));
#709=DIRECTION('',(1.0,0.0,0.0));
#710=DIRECTION('',(0.0,0.0,1.0));
#711=CARTESIAN_POINT('',(81.5,60.2,0.0));
#712=DIRECTION('',(0.0,0.0,1.0));
#713=DIRECTION('',(1.0,0.0,0.0));
#714=DIRECTION('',(-0.0,-1.0,-0.0));
#715=DIRECTION('',(0.0,0.0,1.0));
#716=DIRECTION('',(0.0,1.0,0.0));
#717=CARTESIAN_POINT('',(81.5,5.99999999999999,1000.0));
#718=DIRECTION('',(0.0,0.0,-1.0));
#719=DIRECTION('',(1.0,0.0,0.0));
#720=DIRECTION('',(0.0,0.0,1.0));
#721=CARTESIAN_POINT('',(81.5,5.99999999999999,0.0));
#722=DIRECTION('',(0.0,0.0,1.0));
#723=DIRECTION('',(1.0,0.0,0.0));
#724=DIRECTION('',(-1.0,6.12303176911189E-17,0.0));
#725=DIRECTION('',(0.0,0.0,1.0));
#726=DIRECTION('',(1.0,-6.12303176911189E-17,0.0));
#727=CARTESIAN_POINT('',(-81.5,6.00000000000001,1000.0));
#728=DIRECTION('',(0.0,0.0,-1.0));
#729=DIRECTION('',(1.0,0.0,0.0));
#730=DIRECTION('',(0.0,0.0,1.0));
#731=CARTESIAN_POINT('',(-81.5,6.00000000000001,0.0));
#732=DIRECTION('',(0.0,0.0,1.0));
#733=DIRECTION('',(1.0,0.0,0.0));
#734=DIRECTION('',(0.0,1.0,0.0));
#735=DIRECTION('',(0.0,0.0,1.0));
#736=DIRECTION('',(0.0,-1.0,0.0));
#737=CARTESIAN_POINT('',(-81.5,60.2,1000.0));
#738=DIRECTION('',(0.0,0.0,-1.0));
#739=DIRECTION('',(1.0,0.0,0.0));
#740=CARTESIAN_POINT('',(-81.5,60.2,0.0));
#741=DIRECTION('',(0.0,0.0,1.0));
#742=DIRECTION('',(1.0,0.0,0.0));
ENDSEC;
END-ISO-10303-21;
