ISO-10303-21;
HEADER;
FILE_DESCRIPTION (( 'STEP AP214' ),
    '1' );
FILE_NAME ('BRM 18x4.step',
    '2020-09-08T10:22:51',
    ( '' ),
    ( '' ),
    'SwSTEP 2.0',
    'SolidWorks 2020',
    '' );
FILE_SCHEMA (( 'AUTOMOTIVE_DESIGN' ));
ENDSEC;

DATA;
#1 = DIRECTION ( 'NONE',  ( 0.0000000000000000000, 0.0000000000000000000, 1.000000000000000000 ) ) ;
#2 = DIRECTION ( 'NONE',  ( -1.000000000000000000, -0.0000000000000000000, -0.0000000000000000000 ) ) ;
#3 = AXIS2_PLACEMENT_3D ( 'NONE', #24, #19, #273 ) ;
#4 = EDGE_CURVE ( 'NONE', #62, #9, #35, .T. ) ;
#5 = CYLINDRICAL_SURFACE ( 'NONE', #181, 20.00000000000000000 ) ;
#6 = FACE_OUTER_BOUND ( 'NONE', #211, .T. ) ;
#7 = ORIENTED_EDGE ( 'NONE', *, *, #246, .F. ) ;
#8 = DIRECTION ( 'NONE',  ( -1.000000000000000000, 0.0000000000000000000, 0.0000000000000000000 ) ) ;
#9 = VERTEX_POINT ( 'NONE', #118 ) ;
#10 = CARTESIAN_POINT ( 'NONE',  ( 29.98290598290598297, 0.0000000000000000000, 0.0000000000000000000 ) ) ;
#11 = FACE_OUTER_BOUND ( 'NONE', #117, .T. ) ;
#12 = ORIENTED_EDGE ( 'NONE', *, *, #95, .T. ) ;
#13 = ADVANCED_FACE ( 'NONE', ( #15, #11 ), #136, .F. ) ;
#14 = AXIS2_PLACEMENT_3D ( 'NONE', #253, #56, #159 ) ;
#15 = FACE_BOUND ( 'NONE', #128, .T. ) ;
#16 = EDGE_LOOP ( 'NONE', ( #201, #139, #240, #266 ) ) ;
#17 = ORIENTED_EDGE ( 'NONE', *, *, #37, .F. ) ;
#18 = AXIS2_PLACEMENT_3D ( 'NONE', #122, #70, #269 ) ;
#19 = DIRECTION ( 'NONE',  ( 1.000000000000000000, -0.0000000000000000000, -0.0000000000000000000 ) ) ;
#20 = EDGE_CURVE ( 'NONE', #189, #279, #180, .T. ) ;
#21 = CARTESIAN_POINT ( 'NONE',  ( -6.017094017094014369, 0.0000000000000000000, 20.00000000000000000 ) ) ;
#22 = DIRECTION ( 'NONE',  ( 0.0000000000000000000, 0.0000000000000000000, 1.000000000000000000 ) ) ;
#23 = ORIENTED_EDGE ( 'NONE', *, *, #66, .F. ) ;
#24 = CARTESIAN_POINT ( 'NONE',  ( 29.98290598290598297, 0.0000000000000000000, 0.0000000000000000000 ) ) ;
#25 = CIRCLE ( 'NONE', #18, 9.000000000000000000 ) ;
#26 = FACE_OUTER_BOUND ( 'NONE', #46, .T. ) ;
#27 = ORIENTED_EDGE ( 'NONE', *, *, #246, .T. ) ;
#28 = DIRECTION ( 'NONE',  ( -1.000000000000000000, -0.0000000000000000000, -0.0000000000000000000 ) ) ;
#29 = DIRECTION ( 'NONE',  ( -1.000000000000000000, -0.0000000000000000000, -0.0000000000000000000 ) ) ;
#30 = CIRCLE ( 'NONE', #89, 9.500000000000001776 ) ;
#31 = EDGE_CURVE ( 'NONE', #279, #9, #30, .T. ) ;
#32 = MECHANICAL_DESIGN_GEOMETRIC_PRESENTATION_REPRESENTATION (  '', ( #96 ), #218 ) ;
#33 = PRODUCT_DEFINITION_FORMATION_WITH_SPECIFIED_SOURCE ( 'ANY', '', #276, .NOT_KNOWN. ) ;
#34 = SURFACE_STYLE_USAGE ( .BOTH. , #38 ) ;
#35 = LINE ( 'NONE', #235, #268 ) ;
#36 = ORIENTED_EDGE ( 'NONE', *, *, #116, .F. ) ;
#37 = EDGE_CURVE ( 'NONE', #189, #158, #263, .T. ) ;
#38 = SURFACE_SIDE_STYLE ('',( #154 ) ) ;
#39 = ORIENTED_EDGE ( 'NONE', *, *, #31, .T. ) ;
#40 = VECTOR ( 'NONE', #110, 1000.000000000000000 ) ;
#41 = VECTOR ( 'NONE', #109, 1000.000000000000000 ) ;
#42 = DIRECTION ( 'NONE',  ( 0.0000000000000000000, 0.0000000000000000000, 1.000000000000000000 ) ) ;
#43 = SURFACE_STYLE_FILL_AREA ( #307 ) ;
#44 = AXIS2_PLACEMENT_3D ( 'NONE', #267, #125, #147 ) ;
#45 = CARTESIAN_POINT ( 'NONE',  ( -46.22222222222222143, 0.0000000000000000000, 9.000000000000000000 ) ) ;
#46 = EDGE_LOOP ( 'NONE', ( #233, #221, #7, #94 ) ) ;
#47 = DIRECTION ( 'NONE',  ( 1.000000000000000000, -0.0000000000000000000, -0.0000000000000000000 ) ) ;
#48 = AXIS2_PLACEMENT_3D ( 'NONE', #64, #286, #212 ) ;
#49 = AXIS2_PLACEMENT_3D ( 'NONE', #108, #29, #133 ) ;
#50 = CARTESIAN_POINT ( 'NONE',  ( 29.98290598290598297, 0.0000000000000000000, 0.0000000000000000000 ) ) ;
#51 = DIRECTION ( 'NONE',  ( 0.0000000000000000000, 0.0000000000000000000, -1.000000000000000000 ) ) ;
#52 = LINE ( 'NONE', #169, #100 ) ;
#53 = PRODUCT_DEFINITION_SHAPE ( 'NONE', 'NONE',  #204 ) ;
#54 = CYLINDRICAL_SURFACE ( 'NONE', #165, 20.00000000000000000 ) ;
#55 = CONICAL_SURFACE ( 'NONE', #228, 9.000000000000000000, 0.7853981633974431720 ) ;
#56 = DIRECTION ( 'NONE',  ( 1.000000000000000000, -0.0000000000000000000, -0.0000000000000000000 ) ) ;
#57 = DIRECTION ( 'NONE',  ( 0.0000000000000000000, 0.0000000000000000000, -1.000000000000000000 ) ) ;
#58 = CIRCLE ( 'NONE', #274, 9.500000000000001776 ) ;
#59 =( GEOMETRIC_REPRESENTATION_CONTEXT ( 3 ) GLOBAL_UNCERTAINTY_ASSIGNED_CONTEXT ( ( #132 ) ) GLOBAL_UNIT_ASSIGNED_CONTEXT ( ( #309, #261, #187 ) ) REPRESENTATION_CONTEXT ( 'NONE', 'WORKASPACE' ) );
#60 = CARTESIAN_POINT ( 'NONE',  ( 29.98290598290598297, 1.163414459189985682E-15, 9.500000000000001776 ) ) ;
#61 =( NAMED_UNIT ( * ) SI_UNIT ( $, .STERADIAN. ) SOLID_ANGLE_UNIT ( ) );
#62 = VERTEX_POINT ( 'NONE', #143 ) ;
#63 = DIRECTION ( 'NONE',  ( -1.000000000000000000, -0.0000000000000000000, -0.0000000000000000000 ) ) ;
#64 = CARTESIAN_POINT ( 'NONE',  ( -6.017094017094014369, 9.000000000000000000, 0.0000000000000000000 ) ) ;
#65 = CIRCLE ( 'NONE', #262, 20.00000000000000000 ) ;
#66 = EDGE_CURVE ( 'NONE', #134, #68, #52, .T. ) ;
#67 = DIRECTION ( 'NONE',  ( 0.0000000000000000000, 0.0000000000000000000, 1.000000000000000000 ) ) ;
#68 = VERTEX_POINT ( 'NONE', #294 ) ;
#69 = ADVANCED_FACE ( 'NONE', ( #26 ), #54, .T. ) ;
#70 = DIRECTION ( 'NONE',  ( -1.000000000000000000, 0.0000000000000000000, 0.0000000000000000000 ) ) ;
#71 = DIRECTION ( 'NONE',  ( -0.0000000000000000000, 0.0000000000000000000, 1.000000000000000000 ) ) ;
#72 = EDGE_CURVE ( 'NONE', #134, #158, #25, .T. ) ;
#73 = AXIS2_PLACEMENT_3D ( 'NONE', #50, #292, #214 ) ;
#74 = FACE_OUTER_BOUND ( 'NONE', #16, .T. ) ;
#75 = CARTESIAN_POINT ( 'NONE',  ( -6.017094017094014369, 0.0000000000000000000, 0.0000000000000000000 ) ) ;
#76 = EDGE_LOOP ( 'NONE', ( #23, #282, #311, #259 ) ) ;
#77 = FACE_OUTER_BOUND ( 'NONE', #288, .T. ) ;
#78 = CARTESIAN_POINT ( 'NONE',  ( 29.98290598290598297, 0.0000000000000000000, 0.0000000000000000000 ) ) ;
#79 = EDGE_CURVE ( 'NONE', #306, #151, #293, .T. ) ;
#80 = DIRECTION ( 'NONE',  ( -1.000000000000000000, 0.0000000000000000000, 0.0000000000000000000 ) ) ;
#81 = DIRECTION ( 'NONE',  ( 0.0000000000000000000, 0.0000000000000000000, 1.000000000000000000 ) ) ;
#82 = VERTEX_POINT ( 'NONE', #146 ) ;
#83 = CONICAL_SURFACE ( 'NONE', #3, 9.500000000000001776, 0.7853981633974500554 ) ;
#84 =( GEOMETRIC_REPRESENTATION_CONTEXT ( 3 ) GLOBAL_UNCERTAINTY_ASSIGNED_CONTEXT ( ( #251 ) ) GLOBAL_UNIT_ASSIGNED_CONTEXT ( ( #299, #182, #61 ) ) REPRESENTATION_CONTEXT ( 'NONE', 'WORKASPACE' ) );
#85 = EDGE_LOOP ( 'NONE', ( #210, #39 ) ) ;
#86 =( LENGTH_UNIT ( ) NAMED_UNIT ( * ) SI_UNIT ( .MILLI., .METRE. ) );
#87 = ORIENTED_EDGE ( 'NONE', *, *, #164, .T. ) ;
#88 = SHAPE_DEFINITION_REPRESENTATION ( #53, #120 ) ;
#89 = AXIS2_PLACEMENT_3D ( 'NONE', #229, #188, #67 ) ;
#90 = SURFACE_STYLE_USAGE ( .BOTH. , #137 ) ;
#91 = DIRECTION ( 'NONE',  ( 0.7071067811865463515, 0.0000000000000000000, -0.7071067811865487940 ) ) ;
#92 = PRESENTATION_STYLE_ASSIGNMENT (( #90 ) ) ;
#93 = EDGE_CURVE ( 'NONE', #68, #245, #237, .T. ) ;
#94 = ORIENTED_EDGE ( 'NONE', *, *, #302, .F. ) ;
#95 = EDGE_CURVE ( 'NONE', #82, #127, #65, .T. ) ;
#96 = STYLED_ITEM ( 'NONE', ( #135 ), #216 ) ;
#97 = FACE_OUTER_BOUND ( 'NONE', #156, .T. ) ;
#98 = FACE_OUTER_BOUND ( 'NONE', #76, .T. ) ;
#99 = CARTESIAN_POINT ( 'NONE',  ( 29.48290598290598297, 0.0000000000000000000, 9.000000000000000000 ) ) ;
#100 = VECTOR ( 'NONE', #103, 1000.000000000000000 ) ;
#101 = ADVANCED_FACE ( 'NONE', ( #97 ), #5, .T. ) ;
#102 = DIRECTION ( 'NONE',  ( -1.000000000000000000, -0.0000000000000000000, -0.0000000000000000000 ) ) ;
#103 = DIRECTION ( 'NONE',  ( -0.7071067811865512365, 8.659560562354889717E-17, -0.7071067811865439090 ) ) ;
#104 = ORIENTED_EDGE ( 'NONE', *, *, #31, .F. ) ;
#105 = FILL_AREA_STYLE_COLOUR ( '', #129 ) ;
#106 = CYLINDRICAL_SURFACE ( 'NONE', #49, 9.000000000000000000 ) ;
#107 = AXIS2_PLACEMENT_3D ( 'NONE', #150, #47, #51 ) ;
#108 = CARTESIAN_POINT ( 'NONE',  ( -46.22222222222222143, 0.0000000000000000000, 0.0000000000000000000 ) ) ;
#109 = DIRECTION ( 'NONE',  ( -1.000000000000000000, -0.0000000000000000000, -0.0000000000000000000 ) ) ;
#110 = DIRECTION ( 'NONE',  ( -1.000000000000000000, -0.0000000000000000000, -0.0000000000000000000 ) ) ;
#111 = ORIENTED_EDGE ( 'NONE', *, *, #20, .F. ) ;
#112 = CARTESIAN_POINT ( 'NONE',  ( 0.0000000000000000000, 0.0000000000000000000, 0.0000000000000000000 ) ) ;
#113 = CIRCLE ( 'NONE', #14, 9.000000000000000000 ) ;
#114 = MECHANICAL_DESIGN_GEOMETRIC_PRESENTATION_REPRESENTATION (  '', ( #308 ), #59 ) ;
#115 = ORIENTED_EDGE ( 'NONE', *, *, #296, .T. ) ;
#116 = EDGE_CURVE ( 'NONE', #306, #82, #191, .T. ) ;
#117 = EDGE_LOOP ( 'NONE', ( #27, #12 ) ) ;
#118 = CARTESIAN_POINT ( 'NONE',  ( 29.98290598290598297, 0.0000000000000000000, -9.500000000000001776 ) ) ;
#119 = CARTESIAN_POINT ( 'NONE',  ( -46.22222222222222143, 2.449293598294706513E-15, -20.00000000000000000 ) ) ;
#120 = ADVANCED_BREP_SHAPE_REPRESENTATION ( 'BRM 18x4', ( #216, #124 ), #84 ) ;
#121 = CARTESIAN_POINT ( 'NONE',  ( 29.98290598290598297, 0.0000000000000000000, 20.00000000000000000 ) ) ;
#122 = CARTESIAN_POINT ( 'NONE',  ( -5.517094017094007263, 0.0000000000000000000, 0.0000000000000000000 ) ) ;
#123 = CIRCLE ( 'NONE', #190, 9.500000000000001776 ) ;
#124 = AXIS2_PLACEMENT_3D ( 'NONE', #112, #42, #142 ) ;
#125 = DIRECTION ( 'NONE',  ( -1.000000000000000000, 0.0000000000000000000, 0.0000000000000000000 ) ) ;
#126 = CYLINDRICAL_SURFACE ( 'NONE', #232, 9.000000000000000000 ) ;
#127 = VERTEX_POINT ( 'NONE', #21 ) ;
#128 = EDGE_LOOP ( 'NONE', ( #160, #183 ) ) ;
#129 = COLOUR_RGB ( '',0.7921568627450980005, 0.8196078431372548767, 0.9333333333333333481 ) ;
#130 = VECTOR ( 'NONE', #270, 1000.000000000000000 ) ;
#131 = ADVANCED_FACE ( 'NONE', ( #217 ), #126, .F. ) ;
#132 = UNCERTAINTY_MEASURE_WITH_UNIT (LENGTH_MEASURE( 1.000000000000000082E-05 ), #309, 'distance_accuracy_value', 'NONE');
#133 = DIRECTION ( 'NONE',  ( 0.0000000000000000000, 0.0000000000000000000, 1.000000000000000000 ) ) ;
#134 = VERTEX_POINT ( 'NONE', #272 ) ;
#135 = PRESENTATION_STYLE_ASSIGNMENT (( #34 ) ) ;
#136 = PLANE ( 'NONE',  #48 ) ;
#137 = SURFACE_SIDE_STYLE ('',( #43 ) ) ;
#138 = CIRCLE ( 'NONE', #312, 20.00000000000000000 ) ;
#139 = ORIENTED_EDGE ( 'NONE', *, *, #20, .T. ) ;
#140 = APPLICATION_PROTOCOL_DEFINITION ( 'draft international standard', 'automotive_design', 1998, #208 ) ;
#141 = EDGE_CURVE ( 'NONE', #158, #245, #168, .T. ) ;
#142 = DIRECTION ( 'NONE',  ( 1.000000000000000000, 0.0000000000000000000, 0.0000000000000000000 ) ) ;
#143 = CARTESIAN_POINT ( 'NONE',  ( 29.48290598290598297, 1.102182119232617714E-15, -9.000000000000000000 ) ) ;
#144 = ORIENTED_EDGE ( 'NONE', *, *, #254, .T. ) ;
#145 = DIRECTION ( 'NONE',  ( 0.0000000000000000000, 0.0000000000000000000, 1.000000000000000000 ) ) ;
#146 = CARTESIAN_POINT ( 'NONE',  ( -6.017094017094014369, 2.449293598294706513E-15, -20.00000000000000000 ) ) ;
#147 = DIRECTION ( 'NONE',  ( 0.0000000000000000000, 0.0000000000000000000, 1.000000000000000000 ) ) ;
#148 = ORIENTED_EDGE ( 'NONE', *, *, #164, .F. ) ;
#149 = CARTESIAN_POINT ( 'NONE',  ( -5.517094017094007263, 0.0000000000000000000, 9.000000000000000000 ) ) ;
#150 = CARTESIAN_POINT ( 'NONE',  ( 29.98290598290598297, 0.0000000000000000000, 0.0000000000000000000 ) ) ;
#151 = VERTEX_POINT ( 'NONE', #121 ) ;
#152 = CARTESIAN_POINT ( 'NONE',  ( -5.517094017094007263, 0.0000000000000000000, 0.0000000000000000000 ) ) ;
#153 = ORIENTED_EDGE ( 'NONE', *, *, #277, .F. ) ;
#154 = SURFACE_STYLE_FILL_AREA ( #303 ) ;
#155 = AXIS2_PLACEMENT_3D ( 'NONE', #172, #241, #1 ) ;
#156 = EDGE_LOOP ( 'NONE', ( #36, #185, #227, #205 ) ) ;
#157 = CARTESIAN_POINT ( 'NONE',  ( 29.98290598290598297, 1.163414459189985682E-15, 9.500000000000001776 ) ) ;
#158 = VERTEX_POINT ( 'NONE', #194 ) ;
#159 = DIRECTION ( 'NONE',  ( 0.0000000000000000000, 0.0000000000000000000, 1.000000000000000000 ) ) ;
#160 = ORIENTED_EDGE ( 'NONE', *, *, #277, .T. ) ;
#161 = PRODUCT_DEFINITION_CONTEXT ( 'detailed design', #291, 'design' ) ;
#162 = PRODUCT_CONTEXT ( 'NONE', #208, 'mechanical' ) ;
#163 = ORIENTED_EDGE ( 'NONE', *, *, #230, .F. ) ;
#164 = EDGE_CURVE ( 'NONE', #62, #189, #197, .T. ) ;
#165 = AXIS2_PLACEMENT_3D ( 'NONE', #313, #102, #145 ) ;
#166 = ORIENTED_EDGE ( 'NONE', *, *, #72, .T. ) ;
#167 = ADVANCED_FACE ( 'NONE', ( #77 ), #83, .F. ) ;
#168 = LINE ( 'NONE', #149, #130 ) ;
#169 = CARTESIAN_POINT ( 'NONE',  ( -5.517094017094007263, 1.102182119232617714E-15, -9.000000000000000000 ) ) ;
#170 = PRESENTATION_LAYER_ASSIGNMENT (  '', '', ( #96 ) ) ;
#171 = CARTESIAN_POINT ( 'NONE',  ( -46.22222222222222143, 0.0000000000000000000, 0.0000000000000000000 ) ) ;
#172 = CARTESIAN_POINT ( 'NONE',  ( 29.48290598290598297, 0.0000000000000000000, 0.0000000000000000000 ) ) ;
#173 = ORIENTED_EDGE ( 'NONE', *, *, #141, .F. ) ;
#174 = CARTESIAN_POINT ( 'NONE',  ( -6.017094017094014369, 0.0000000000000000000, 0.0000000000000000000 ) ) ;
#175 = CLOSED_SHELL ( 'NONE', ( #199, #265, #131, #69, #13, #101, #207, #215, #178, #167 ) ) ;
#176 = CIRCLE ( 'NONE', #260, 9.000000000000000000 ) ;
#177 = DIRECTION ( 'NONE',  ( -1.000000000000000000, -0.0000000000000000000, -0.0000000000000000000 ) ) ;
#178 = ADVANCED_FACE ( 'NONE', ( #98 ), #186, .F. ) ;
#179 =( NAMED_UNIT ( * ) SI_UNIT ( $, .STERADIAN. ) SOLID_ANGLE_UNIT ( ) );
#180 = LINE ( 'NONE', #60, #223 ) ;
#181 = AXIS2_PLACEMENT_3D ( 'NONE', #171, #236, #22 ) ;
#182 =( NAMED_UNIT ( * ) PLANE_ANGLE_UNIT ( ) SI_UNIT ( $, .RADIAN. ) );
#183 = ORIENTED_EDGE ( 'NONE', *, *, #93, .T. ) ;
#184 = CARTESIAN_POINT ( 'NONE',  ( -6.017094017094014369, 0.0000000000000000000, 9.500000000000001776 ) ) ;
#185 = ORIENTED_EDGE ( 'NONE', *, *, #79, .T. ) ;
#186 = CONICAL_SURFACE ( 'NONE', #44, 9.000000000000000000, 0.7853981633974431720 ) ;
#187 =( NAMED_UNIT ( * ) SI_UNIT ( $, .STERADIAN. ) SOLID_ANGLE_UNIT ( ) );
#188 = DIRECTION ( 'NONE',  ( -1.000000000000000000, -0.0000000000000000000, -0.0000000000000000000 ) ) ;
#189 = VERTEX_POINT ( 'NONE', #99 ) ;
#190 = AXIS2_PLACEMENT_3D ( 'NONE', #10, #283, #200 ) ;
#191 = LINE ( 'NONE', #119, #287 ) ;
#192 = CARTESIAN_POINT ( 'NONE',  ( 29.98290598290598297, 20.00000000000000000, 0.0000000000000000000 ) ) ;
#193 = DIRECTION ( 'NONE',  ( -1.000000000000000000, -0.0000000000000000000, -0.0000000000000000000 ) ) ;
#194 = CARTESIAN_POINT ( 'NONE',  ( -5.517094017094007263, 0.0000000000000000000, 9.000000000000000000 ) ) ;
#195 = CARTESIAN_POINT ( 'NONE',  ( -46.22222222222222143, 0.0000000000000000000, 0.0000000000000000000 ) ) ;
#196 = CARTESIAN_POINT ( 'NONE',  ( -6.017094017094014369, 0.0000000000000000000, 0.0000000000000000000 ) ) ;
#197 = CIRCLE ( 'NONE', #155, 9.000000000000000000 ) ;
#198 = CARTESIAN_POINT ( 'NONE',  ( -46.22222222222222143, 0.0000000000000000000, 20.00000000000000000 ) ) ;
#199 = ADVANCED_FACE ( 'NONE', ( #74 ), #202, .F. ) ;
#200 = DIRECTION ( 'NONE',  ( 0.0000000000000000000, 0.0000000000000000000, 1.000000000000000000 ) ) ;
#201 = ORIENTED_EDGE ( 'NONE', *, *, #254, .F. ) ;
#202 = CONICAL_SURFACE ( 'NONE', #107, 9.500000000000001776, 0.7853981633974500554 ) ;
#203 =( NAMED_UNIT ( * ) PLANE_ANGLE_UNIT ( ) SI_UNIT ( $, .RADIAN. ) );
#204 = PRODUCT_DEFINITION ( 'UNKNOWN', '', #33, #161 ) ;
#205 = ORIENTED_EDGE ( 'NONE', *, *, #95, .F. ) ;
#206 = FILL_AREA_STYLE_COLOUR ( '', #264 ) ;
#207 = ADVANCED_FACE ( 'NONE', ( #213, #244 ), #314, .F. ) ;
#208 = APPLICATION_CONTEXT ( 'automotive_design' ) ;
#209 = AXIS2_PLACEMENT_3D ( 'NONE', #75, #289, #238 ) ;
#210 = ORIENTED_EDGE ( 'NONE', *, *, #234, .T. ) ;
#211 = EDGE_LOOP ( 'NONE', ( #243, #301, #153, #173 ) ) ;
#212 = DIRECTION ( 'NONE',  ( 0.0000000000000000000, 0.0000000000000000000, -1.000000000000000000 ) ) ;
#213 = FACE_BOUND ( 'NONE', #85, .T. ) ;
#214 = DIRECTION ( 'NONE',  ( 0.0000000000000000000, 0.0000000000000000000, 1.000000000000000000 ) ) ;
#215 = ADVANCED_FACE ( 'NONE', ( #249 ), #106, .F. ) ;
#216 = MANIFOLD_SOLID_BREP ( 'Chamfer1', #175 ) ;
#217 = FACE_OUTER_BOUND ( 'NONE', #284, .T. ) ;
#218 =( GEOMETRIC_REPRESENTATION_CONTEXT ( 3 ) GLOBAL_UNCERTAINTY_ASSIGNED_CONTEXT ( ( #280 ) ) GLOBAL_UNIT_ASSIGNED_CONTEXT ( ( #86, #203, #179 ) ) REPRESENTATION_CONTEXT ( 'NONE', 'WORKASPACE' ) );
#219 = DIRECTION ( 'NONE',  ( -1.000000000000000000, -0.0000000000000000000, -0.0000000000000000000 ) ) ;
#220 = LINE ( 'NONE', #278, #250 ) ;
#221 = ORIENTED_EDGE ( 'NONE', *, *, #116, .T. ) ;
#222 = DIRECTION ( 'NONE',  ( 0.0000000000000000000, 0.0000000000000000000, 1.000000000000000000 ) ) ;
#223 = VECTOR ( 'NONE', #255, 1000.000000000000000 ) ;
#224 = AXIS2_PLACEMENT_3D ( 'NONE', #258, #63, #256 ) ;
#225 = LINE ( 'NONE', #198, #41 ) ;
#226 = EDGE_LOOP ( 'NONE', ( #163, #87, #248, #115 ) ) ;
#227 = ORIENTED_EDGE ( 'NONE', *, *, #302, .T. ) ;
#228 = AXIS2_PLACEMENT_3D ( 'NONE', #300, #8, #222 ) ;
#229 = CARTESIAN_POINT ( 'NONE',  ( 29.98290598290598297, 0.0000000000000000000, 0.0000000000000000000 ) ) ;
#230 = EDGE_CURVE ( 'NONE', #62, #134, #220, .T. ) ;
#231 = APPLICATION_PROTOCOL_DEFINITION ( 'draft international standard', 'automotive_design', 1998, #291 ) ;
#232 = AXIS2_PLACEMENT_3D ( 'NONE', #195, #2, #295 ) ;
#233 = ORIENTED_EDGE ( 'NONE', *, *, #281, .T. ) ;
#234 = EDGE_CURVE ( 'NONE', #9, #279, #123, .T. ) ;
#235 = CARTESIAN_POINT ( 'NONE',  ( 29.98290598290598297, 0.0000000000000000000, -9.500000000000001776 ) ) ;
#236 = DIRECTION ( 'NONE',  ( -1.000000000000000000, -0.0000000000000000000, -0.0000000000000000000 ) ) ;
#237 = CIRCLE ( 'NONE', #209, 9.500000000000001776 ) ;
#238 = DIRECTION ( 'NONE',  ( 0.0000000000000000000, 0.0000000000000000000, -1.000000000000000000 ) ) ;
#239 = DIRECTION ( 'NONE',  ( 0.0000000000000000000, 0.0000000000000000000, 1.000000000000000000 ) ) ;
#240 = ORIENTED_EDGE ( 'NONE', *, *, #234, .F. ) ;
#241 = DIRECTION ( 'NONE',  ( 1.000000000000000000, -0.0000000000000000000, -0.0000000000000000000 ) ) ;
#242 = CIRCLE ( 'NONE', #224, 20.00000000000000000 ) ;
#243 = ORIENTED_EDGE ( 'NONE', *, *, #72, .F. ) ;
#244 = FACE_OUTER_BOUND ( 'NONE', #257, .T. ) ;
#245 = VERTEX_POINT ( 'NONE', #184 ) ;
#246 = EDGE_CURVE ( 'NONE', #127, #82, #242, .T. ) ;
#247 = CARTESIAN_POINT ( 'NONE',  ( 29.98290598290598297, 2.449293598294706513E-15, -20.00000000000000000 ) ) ;
#248 = ORIENTED_EDGE ( 'NONE', *, *, #37, .T. ) ;
#249 = FACE_OUTER_BOUND ( 'NONE', #226, .T. ) ;
#250 = VECTOR ( 'NONE', #28, 1000.000000000000000 ) ;
#251 = UNCERTAINTY_MEASURE_WITH_UNIT (LENGTH_MEASURE( 1.000000000000000082E-05 ), #299, 'distance_accuracy_value', 'NONE');
#252 = PRESENTATION_LAYER_ASSIGNMENT (  '', '', ( #308 ) ) ;
#253 = CARTESIAN_POINT ( 'NONE',  ( 29.48290598290598297, 0.0000000000000000000, 0.0000000000000000000 ) ) ;
#254 = EDGE_CURVE ( 'NONE', #189, #62, #113, .T. ) ;
#255 = DIRECTION ( 'NONE',  ( 0.7071067811865463515, 8.659560562354948882E-17, 0.7071067811865487940 ) ) ;
#256 = DIRECTION ( 'NONE',  ( 0.0000000000000000000, 0.0000000000000000000, 1.000000000000000000 ) ) ;
#257 = EDGE_LOOP ( 'NONE', ( #297, #310 ) ) ;
#258 = CARTESIAN_POINT ( 'NONE',  ( -6.017094017094014369, 0.0000000000000000000, 0.0000000000000000000 ) ) ;
#259 = ORIENTED_EDGE ( 'NONE', *, *, #93, .F. ) ;
#260 = AXIS2_PLACEMENT_3D ( 'NONE', #152, #80, #57 ) ;
#261 =( NAMED_UNIT ( * ) PLANE_ANGLE_UNIT ( ) SI_UNIT ( $, .RADIAN. ) );
#262 = AXIS2_PLACEMENT_3D ( 'NONE', #174, #219, #239 ) ;
#263 = LINE ( 'NONE', #45, #40 ) ;
#264 = COLOUR_RGB ( '',0.7921568627450980005, 0.8196078431372548767, 0.9333333333333333481 ) ;
#265 = ADVANCED_FACE ( 'NONE', ( #6 ), #55, .F. ) ;
#266 = ORIENTED_EDGE ( 'NONE', *, *, #4, .F. ) ;
#267 = CARTESIAN_POINT ( 'NONE',  ( -5.517094017094007263, 0.0000000000000000000, 0.0000000000000000000 ) ) ;
#268 = VECTOR ( 'NONE', #91, 1000.000000000000000 ) ;
#269 = DIRECTION ( 'NONE',  ( 0.0000000000000000000, 0.0000000000000000000, -1.000000000000000000 ) ) ;
#270 = DIRECTION ( 'NONE',  ( -0.7071067811865512365, 0.0000000000000000000, 0.7071067811865439090 ) ) ;
#271 = ORIENTED_EDGE ( 'NONE', *, *, #230, .T. ) ;
#272 = CARTESIAN_POINT ( 'NONE',  ( -5.517094017094007263, 1.102182119232617714E-15, -9.000000000000000000 ) ) ;
#273 = DIRECTION ( 'NONE',  ( 0.0000000000000000000, 0.0000000000000000000, -1.000000000000000000 ) ) ;
#274 = AXIS2_PLACEMENT_3D ( 'NONE', #196, #298, #275 ) ;
#275 = DIRECTION ( 'NONE',  ( 0.0000000000000000000, 0.0000000000000000000, -1.000000000000000000 ) ) ;
#276 = PRODUCT ( 'BRM 18x4', 'BRM 18x4', '', ( #162 ) ) ;
#277 = EDGE_CURVE ( 'NONE', #245, #68, #58, .T. ) ;
#278 = CARTESIAN_POINT ( 'NONE',  ( -46.22222222222222143, 1.102182119232617714E-15, -9.000000000000000000 ) ) ;
#279 = VERTEX_POINT ( 'NONE', #157 ) ;
#280 = UNCERTAINTY_MEASURE_WITH_UNIT (LENGTH_MEASURE( 1.000000000000000082E-05 ), #86, 'distance_accuracy_value', 'NONE');
#281 = EDGE_CURVE ( 'NONE', #151, #306, #138, .T. ) ;
#282 = ORIENTED_EDGE ( 'NONE', *, *, #296, .F. ) ;
#283 = DIRECTION ( 'NONE',  ( -1.000000000000000000, -0.0000000000000000000, -0.0000000000000000000 ) ) ;
#284 = EDGE_LOOP ( 'NONE', ( #144, #271, #166, #17 ) ) ;
#285 = PRODUCT_RELATED_PRODUCT_CATEGORY ( 'part', '', ( #276 ) ) ;
#286 = DIRECTION ( 'NONE',  ( 1.000000000000000000, 0.0000000000000000000, 0.0000000000000000000 ) ) ;
#287 = VECTOR ( 'NONE', #193, 1000.000000000000000 ) ;
#288 = EDGE_LOOP ( 'NONE', ( #111, #148, #304, #104 ) ) ;
#289 = DIRECTION ( 'NONE',  ( 1.000000000000000000, 0.0000000000000000000, 0.0000000000000000000 ) ) ;
#290 = DIRECTION ( 'NONE',  ( -1.000000000000000000, 0.0000000000000000000, -0.0000000000000000000 ) ) ;
#291 = APPLICATION_CONTEXT ( 'automotive_design' ) ;
#292 = DIRECTION ( 'NONE',  ( -1.000000000000000000, -0.0000000000000000000, -0.0000000000000000000 ) ) ;
#293 = CIRCLE ( 'NONE', #73, 20.00000000000000000 ) ;
#294 = CARTESIAN_POINT ( 'NONE',  ( -6.017094017094014369, 1.163414459189985682E-15, -9.500000000000001776 ) ) ;
#295 = DIRECTION ( 'NONE',  ( 0.0000000000000000000, 0.0000000000000000000, 1.000000000000000000 ) ) ;
#296 = EDGE_CURVE ( 'NONE', #158, #134, #176, .T. ) ;
#297 = ORIENTED_EDGE ( 'NONE', *, *, #281, .F. ) ;
#298 = DIRECTION ( 'NONE',  ( 1.000000000000000000, 0.0000000000000000000, 0.0000000000000000000 ) ) ;
#299 =( LENGTH_UNIT ( ) NAMED_UNIT ( * ) SI_UNIT ( .MILLI., .METRE. ) );
#300 = CARTESIAN_POINT ( 'NONE',  ( -5.517094017094007263, 0.0000000000000000000, 0.0000000000000000000 ) ) ;
#301 = ORIENTED_EDGE ( 'NONE', *, *, #66, .T. ) ;
#302 = EDGE_CURVE ( 'NONE', #151, #127, #225, .T. ) ;
#303 = FILL_AREA_STYLE ('',( #105 ) ) ;
#304 = ORIENTED_EDGE ( 'NONE', *, *, #4, .T. ) ;
#305 = AXIS2_PLACEMENT_3D ( 'NONE', #192, #290, #71 ) ;
#306 = VERTEX_POINT ( 'NONE', #247 ) ;
#307 = FILL_AREA_STYLE ('',( #206 ) ) ;
#308 = STYLED_ITEM ( 'NONE', ( #92 ), #120 ) ;
#309 =( LENGTH_UNIT ( ) NAMED_UNIT ( * ) SI_UNIT ( .MILLI., .METRE. ) );
#310 = ORIENTED_EDGE ( 'NONE', *, *, #79, .F. ) ;
#311 = ORIENTED_EDGE ( 'NONE', *, *, #141, .T. ) ;
#312 = AXIS2_PLACEMENT_3D ( 'NONE', #78, #177, #81 ) ;
#313 = CARTESIAN_POINT ( 'NONE',  ( -46.22222222222222143, 0.0000000000000000000, 0.0000000000000000000 ) ) ;
#314 = PLANE ( 'NONE',  #305 ) ;
ENDSEC;
END-ISO-10303-21;
