ISO-10303-21;
HEADER;
FILE_DESCRIPTION (( 'STEP AP214' ),
    '1' );
FILE_NAME ('BRM 10x3.step',
    '2020-09-08T10:22:14',
    ( '' ),
    ( '' ),
    'SwSTEP 2.0',
    'SolidWorks 2020',
    '' );
FILE_SCHEMA (( 'AUTOMOTIVE_DESIGN' ));
ENDSEC;

DATA;
#1 = AXIS2_PLACEMENT_3D ( 'NONE', #266, #149, #2 ) ;
#2 = DIRECTION ( 'NONE',  ( 0.0000000000000000000, 0.0000000000000000000, -1.000000000000000000 ) ) ;
#3 = DIRECTION ( 'NONE',  ( 1.000000000000000000, 0.0000000000000000000, 0.0000000000000000000 ) ) ;
#4 = EDGE_CURVE ( 'NONE', #77, #265, #279, .T. ) ;
#5 = LINE ( 'NONE', #99, #59 ) ;
#6 = CARTESIAN_POINT ( 'NONE',  ( 13.48290598290598830, 6.123233995736766282E-16, -5.000000000000000000 ) ) ;
#7 = CIRCLE ( 'NONE', #273, 5.500000000000006217 ) ;
#8 = ORIENTED_EDGE ( 'NONE', *, *, #111, .F. ) ;
#9 = APPLICATION_PROTOCOL_DEFINITION ( 'draft international standard', 'automotive_design', 1998, #131 ) ;
#10 = CARTESIAN_POINT ( 'NONE',  ( -6.017094017094014369, 0.0000000000000000000, 5.499999999999998224 ) ) ;
#11 = VERTEX_POINT ( 'NONE', #306 ) ;
#12 =( GEOMETRIC_REPRESENTATION_CONTEXT ( 3 ) GLOBAL_UNCERTAINTY_ASSIGNED_CONTEXT ( ( #152 ) ) GLOBAL_UNIT_ASSIGNED_CONTEXT ( ( #88, #262, #87 ) ) REPRESENTATION_CONTEXT ( 'NONE', 'WORKASPACE' ) );
#13 = EDGE_LOOP ( 'NONE', ( #134, #52 ) ) ;
#14 = ORIENTED_EDGE ( 'NONE', *, *, #37, .T. ) ;
#15 = DIRECTION ( 'NONE',  ( 0.7071067811865444641, 0.0000000000000000000, -0.7071067811865505703 ) ) ;
#16 = DIRECTION ( 'NONE',  ( 0.0000000000000000000, 0.0000000000000000000, -1.000000000000000000 ) ) ;
#17 = PLANE ( 'NONE',  #100 ) ;
#18 = CARTESIAN_POINT ( 'NONE',  ( 13.98290598290599185, 0.0000000000000000000, 0.0000000000000000000 ) ) ;
#19 = CONICAL_SURFACE ( 'NONE', #263, 5.000000000000000000, 0.7853981633974526089 ) ;
#20 = SURFACE_STYLE_FILL_AREA ( #66 ) ;
#21 = CARTESIAN_POINT ( 'NONE',  ( -6.017094017094014369, 0.0000000000000000000, 0.0000000000000000000 ) ) ;
#22 = DIRECTION ( 'NONE',  ( -1.000000000000000000, 0.0000000000000000000, -0.0000000000000000000 ) ) ;
#23 = AXIS2_PLACEMENT_3D ( 'NONE', #199, #69, #25 ) ;
#24 = FACE_OUTER_BOUND ( 'NONE', #109, .T. ) ;
#25 = DIRECTION ( 'NONE',  ( 0.0000000000000000000, 0.0000000000000000000, 1.000000000000000000 ) ) ;
#26 = VERTEX_POINT ( 'NONE', #84 ) ;
#27 = DIRECTION ( 'NONE',  ( 0.0000000000000000000, 0.0000000000000000000, -1.000000000000000000 ) ) ;
#28 = SURFACE_STYLE_USAGE ( .BOTH. , #83 ) ;
#29 = ORIENTED_EDGE ( 'NONE', *, *, #98, .F. ) ;
#30 = CARTESIAN_POINT ( 'NONE',  ( 0.0000000000000000000, 0.0000000000000000000, 0.0000000000000000000 ) ) ;
#31 = ORIENTED_EDGE ( 'NONE', *, *, #301, .F. ) ;
#32 = VECTOR ( 'NONE', #75, 1000.000000000000000 ) ;
#33 = CARTESIAN_POINT ( 'NONE',  ( 13.48290598290598830, 0.0000000000000000000, 0.0000000000000000000 ) ) ;
#34 = DIRECTION ( 'NONE',  ( 0.0000000000000000000, 0.0000000000000000000, 1.000000000000000000 ) ) ;
#35 = ORIENTED_EDGE ( 'NONE', *, *, #282, .T. ) ;
#36 = VERTEX_POINT ( 'NONE', #10 ) ;
#37 = EDGE_CURVE ( 'NONE', #77, #71, #113, .T. ) ;
#38 = FACE_BOUND ( 'NONE', #144, .T. ) ;
#39 = CIRCLE ( 'NONE', #79, 10.99999999999999645 ) ;
#40 = CARTESIAN_POINT ( 'NONE',  ( 13.48290598290598830, 0.0000000000000000000, 5.000000000000000000 ) ) ;
#41 = ADVANCED_FACE ( 'NONE', ( #252 ), #206, .T. ) ;
#42 = SURFACE_SIDE_STYLE ('',( #20 ) ) ;
#43 = VECTOR ( 'NONE', #190, 1000.000000000000000 ) ;
#44 = DIRECTION ( 'NONE',  ( -1.000000000000000000, 0.0000000000000000000, 0.0000000000000000000 ) ) ;
#45 = CARTESIAN_POINT ( 'NONE',  ( -46.22222222222222143, 0.0000000000000000000, 0.0000000000000000000 ) ) ;
#46 = ORIENTED_EDGE ( 'NONE', *, *, #249, .T. ) ;
#47 = DIRECTION ( 'NONE',  ( 1.000000000000000000, -0.0000000000000000000, -0.0000000000000000000 ) ) ;
#48 = EDGE_CURVE ( 'NONE', #175, #178, #72, .T. ) ;
#49 = DIRECTION ( 'NONE',  ( -1.000000000000000000, 0.0000000000000000000, 0.0000000000000000000 ) ) ;
#50 = DIRECTION ( 'NONE',  ( 0.0000000000000000000, 0.0000000000000000000, -1.000000000000000000 ) ) ;
#51 = FILL_AREA_STYLE_COLOUR ( '', #73 ) ;
#52 = ORIENTED_EDGE ( 'NONE', *, *, #246, .T. ) ;
#53 =( NAMED_UNIT ( * ) PLANE_ANGLE_UNIT ( ) SI_UNIT ( $, .RADIAN. ) );
#54 = MANIFOLD_SOLID_BREP ( 'Chamfer1', #101 ) ;
#55 = ORIENTED_EDGE ( 'NONE', *, *, #276, .T. ) ;
#56 = VERTEX_POINT ( 'NONE', #232 ) ;
#57 = AXIS2_PLACEMENT_3D ( 'NONE', #208, #62, #160 ) ;
#58 = DIRECTION ( 'NONE',  ( -1.000000000000000000, -0.0000000000000000000, -0.0000000000000000000 ) ) ;
#59 = VECTOR ( 'NONE', #213, 1000.000000000000000 ) ;
#60 = ORIENTED_EDGE ( 'NONE', *, *, #249, .F. ) ;
#61 = EDGE_CURVE ( 'NONE', #11, #36, #114, .T. ) ;
#62 = DIRECTION ( 'NONE',  ( 1.000000000000000000, -0.0000000000000000000, -0.0000000000000000000 ) ) ;
#63 = APPLICATION_CONTEXT ( 'automotive_design' ) ;
#64 = DIRECTION ( 'NONE',  ( -0.7071067811865444641, 0.0000000000000000000, 0.7071067811865505703 ) ) ;
#65 = CARTESIAN_POINT ( 'NONE',  ( -46.22222222222222143, 0.0000000000000000000, 10.99999999999999645 ) ) ;
#66 = FILL_AREA_STYLE ('',( #186 ) ) ;
#67 = DIRECTION ( 'NONE',  ( 0.0000000000000000000, 0.0000000000000000000, 1.000000000000000000 ) ) ;
#68 = EDGE_LOOP ( 'NONE', ( #225, #55, #82, #177 ) ) ;
#69 = DIRECTION ( 'NONE',  ( -1.000000000000000000, -0.0000000000000000000, -0.0000000000000000000 ) ) ;
#70 = CARTESIAN_POINT ( 'NONE',  ( -6.017094017094014369, 0.0000000000000000000, 0.0000000000000000000 ) ) ;
#71 = VERTEX_POINT ( 'NONE', #91 ) ;
#72 = CIRCLE ( 'NONE', #150, 10.99999999999999645 ) ;
#73 = COLOUR_RGB ( '',0.7921568627450980005, 0.8196078431372548767, 0.9333333333333333481 ) ;
#74 = CARTESIAN_POINT ( 'NONE',  ( -46.22222222222222143, 0.0000000000000000000, 0.0000000000000000000 ) ) ;
#75 = DIRECTION ( 'NONE',  ( -1.000000000000000000, -0.0000000000000000000, -0.0000000000000000000 ) ) ;
#76 =( LENGTH_UNIT ( ) NAMED_UNIT ( * ) SI_UNIT ( .MILLI., .METRE. ) );
#77 = VERTEX_POINT ( 'NONE', #40 ) ;
#78 = EDGE_CURVE ( 'NONE', #178, #126, #92, .T. ) ;
#79 = AXIS2_PLACEMENT_3D ( 'NONE', #291, #148, #166 ) ;
#80 = EDGE_LOOP ( 'NONE', ( #205, #110, #183, #85 ) ) ;
#81 = EDGE_CURVE ( 'NONE', #77, #11, #207, .T. ) ;
#82 = ORIENTED_EDGE ( 'NONE', *, *, #244, .T. ) ;
#83 = SURFACE_SIDE_STYLE ('',( #227 ) ) ;
#84 = CARTESIAN_POINT ( 'NONE',  ( -5.517094017094020586, 6.123233995736766282E-16, -5.000000000000000000 ) ) ;
#85 = ORIENTED_EDGE ( 'NONE', *, *, #246, .F. ) ;
#86 = AXIS2_PLACEMENT_3D ( 'NONE', #70, #194, #27 ) ;
#87 =( NAMED_UNIT ( * ) SI_UNIT ( $, .STERADIAN. ) SOLID_ANGLE_UNIT ( ) );
#88 =( LENGTH_UNIT ( ) NAMED_UNIT ( * ) SI_UNIT ( .MILLI., .METRE. ) );
#89 = CARTESIAN_POINT ( 'NONE',  ( -6.017094017094014369, 0.0000000000000000000, 10.99999999999999645 ) ) ;
#90 = CONICAL_SURFACE ( 'NONE', #57, 5.500000000000005329, 0.7853981633974526089 ) ;
#91 = CARTESIAN_POINT ( 'NONE',  ( 13.98290598290599185, 6.735557395310450898E-16, 5.500000000000006217 ) ) ;
#92 = LINE ( 'NONE', #65, #120 ) ;
#93 = ADVANCED_FACE ( 'NONE', ( #140 ), #162, .F. ) ;
#94 =( LENGTH_UNIT ( ) NAMED_UNIT ( * ) SI_UNIT ( .MILLI., .METRE. ) );
#95 = EDGE_LOOP ( 'NONE', ( #130, #14, #221, #29 ) ) ;
#96 = CARTESIAN_POINT ( 'NONE',  ( 13.98290598290599185, 10.99999999999999645, 0.0000000000000000000 ) ) ;
#97 = DIRECTION ( 'NONE',  ( -1.000000000000000000, -0.0000000000000000000, -0.0000000000000000000 ) ) ;
#98 = EDGE_CURVE ( 'NONE', #265, #159, #288, .T. ) ;
#99 = CARTESIAN_POINT ( 'NONE',  ( -46.22222222222222143, 6.123233995736766282E-16, -5.000000000000000000 ) ) ;
#100 = AXIS2_PLACEMENT_3D ( 'NONE', #231, #286, #16 ) ;
#101 = CLOSED_SHELL ( 'NONE', ( #217, #238, #192, #41, #145, #154, #222, #292, #93, #117 ) ) ;
#102 = FACE_OUTER_BOUND ( 'NONE', #133, .T. ) ;
#103 =( NAMED_UNIT ( * ) SI_UNIT ( $, .STERADIAN. ) SOLID_ANGLE_UNIT ( ) );
#104 = ORIENTED_EDGE ( 'NONE', *, *, #301, .T. ) ;
#105 =( NAMED_UNIT ( * ) PLANE_ANGLE_UNIT ( ) SI_UNIT ( $, .RADIAN. ) );
#106 = ORIENTED_EDGE ( 'NONE', *, *, #251, .F. ) ;
#107 = SHAPE_DEFINITION_REPRESENTATION ( #220, #254 ) ;
#108 = AXIS2_PLACEMENT_3D ( 'NONE', #195, #241, #142 ) ;
#109 = EDGE_LOOP ( 'NONE', ( #248, #193, #275, #35 ) ) ;
#110 = ORIENTED_EDGE ( 'NONE', *, *, #48, .T. ) ;
#111 = EDGE_CURVE ( 'NONE', #26, #56, #309, .T. ) ;
#112 = DIRECTION ( 'NONE',  ( 1.000000000000000000, 0.0000000000000000000, 0.0000000000000000000 ) ) ;
#113 = LINE ( 'NONE', #153, #285 ) ;
#114 = LINE ( 'NONE', #314, #182 ) ;
#115 = FACE_OUTER_BOUND ( 'NONE', #80, .T. ) ;
#116 = CARTESIAN_POINT ( 'NONE',  ( -46.22222222222222143, 0.0000000000000000000, 0.0000000000000000000 ) ) ;
#117 = ADVANCED_FACE ( 'NONE', ( #281 ), #90, .F. ) ;
#118 = DIRECTION ( 'NONE',  ( 0.0000000000000000000, 0.0000000000000000000, 1.000000000000000000 ) ) ;
#119 = PRESENTATION_LAYER_ASSIGNMENT (  '', '', ( #198 ) ) ;
#120 = VECTOR ( 'NONE', #212, 1000.000000000000000 ) ;
#121 = UNCERTAINTY_MEASURE_WITH_UNIT (LENGTH_MEASURE( 1.000000000000000082E-05 ), #76, 'distance_accuracy_value', 'NONE');
#122 = CARTESIAN_POINT ( 'NONE',  ( -6.017094017094014369, 1.347111479062088010E-15, -10.99999999999999645 ) ) ;
#123 = CARTESIAN_POINT ( 'NONE',  ( 13.48290598290598830, 0.0000000000000000000, 0.0000000000000000000 ) ) ;
#124 = DIRECTION ( 'NONE',  ( -1.000000000000000000, -0.0000000000000000000, -0.0000000000000000000 ) ) ;
#125 = CARTESIAN_POINT ( 'NONE',  ( 13.98290598290599718, 0.0000000000000000000, 10.99999999999999645 ) ) ;
#126 = VERTEX_POINT ( 'NONE', #89 ) ;
#127 = CARTESIAN_POINT ( 'NONE',  ( 13.98290598290599718, 0.0000000000000000000, 0.0000000000000000000 ) ) ;
#128 = ORIENTED_EDGE ( 'NONE', *, *, #169, .T. ) ;
#129 = ORIENTED_EDGE ( 'NONE', *, *, #48, .F. ) ;
#130 = ORIENTED_EDGE ( 'NONE', *, *, #4, .F. ) ;
#131 = APPLICATION_CONTEXT ( 'automotive_design' ) ;
#132 = AXIS2_PLACEMENT_3D ( 'NONE', #127, #97, #243 ) ;
#133 = EDGE_LOOP ( 'NONE', ( #60, #129 ) ) ;
#134 = ORIENTED_EDGE ( 'NONE', *, *, #251, .T. ) ;
#135 = ORIENTED_EDGE ( 'NONE', *, *, #78, .F. ) ;
#136 = FACE_OUTER_BOUND ( 'NONE', #13, .T. ) ;
#137 = CARTESIAN_POINT ( 'NONE',  ( -5.517094017094020586, 0.0000000000000000000, 0.0000000000000000000 ) ) ;
#138 = DIRECTION ( 'NONE',  ( 0.0000000000000000000, 0.0000000000000000000, 1.000000000000000000 ) ) ;
#139 = EDGE_CURVE ( 'NONE', #71, #159, #7, .T. ) ;
#140 = FACE_OUTER_BOUND ( 'NONE', #229, .T. ) ;
#141 = CIRCLE ( 'NONE', #226, 5.000000000000000000 ) ;
#142 = DIRECTION ( 'NONE',  ( 0.0000000000000000000, 0.0000000000000000000, 1.000000000000000000 ) ) ;
#143 = DIRECTION ( 'NONE',  ( -0.0000000000000000000, 0.0000000000000000000, 1.000000000000000000 ) ) ;
#144 = EDGE_LOOP ( 'NONE', ( #104, #294 ) ) ;
#145 = ADVANCED_FACE ( 'NONE', ( #38, #136 ), #17, .F. ) ;
#146 = DIRECTION ( 'NONE',  ( -1.000000000000000000, 0.0000000000000000000, 0.0000000000000000000 ) ) ;
#147 = AXIS2_PLACEMENT_3D ( 'NONE', #74, #124, #237 ) ;
#148 = DIRECTION ( 'NONE',  ( -1.000000000000000000, -0.0000000000000000000, -0.0000000000000000000 ) ) ;
#149 = DIRECTION ( 'NONE',  ( 1.000000000000000000, -0.0000000000000000000, -0.0000000000000000000 ) ) ;
#150 = AXIS2_PLACEMENT_3D ( 'NONE', #307, #163, #260 ) ;
#151 = ORIENTED_EDGE ( 'NONE', *, *, #181, .F. ) ;
#152 = UNCERTAINTY_MEASURE_WITH_UNIT (LENGTH_MEASURE( 1.000000000000000082E-05 ), #88, 'distance_accuracy_value', 'NONE');
#153 = CARTESIAN_POINT ( 'NONE',  ( 13.98290598290599007, 6.735557395310448926E-16, 5.500000000000005329 ) ) ;
#154 = ADVANCED_FACE ( 'NONE', ( #115 ), #310, .T. ) ;
#155 = ORIENTED_EDGE ( 'NONE', *, *, #282, .F. ) ;
#156 = MECHANICAL_DESIGN_GEOMETRIC_PRESENTATION_REPRESENTATION (  '', ( #198 ), #289 ) ;
#157 = CONICAL_SURFACE ( 'NONE', #1, 5.500000000000005329, 0.7853981633974526089 ) ;
#158 = EDGE_LOOP ( 'NONE', ( #290, #151, #201, #180 ) ) ;
#159 = VERTEX_POINT ( 'NONE', #211 ) ;
#160 = DIRECTION ( 'NONE',  ( 0.0000000000000000000, 0.0000000000000000000, -1.000000000000000000 ) ) ;
#161 = AXIS2_PLACEMENT_3D ( 'NONE', #33, #203, #223 ) ;
#162 = CONICAL_SURFACE ( 'NONE', #235, 5.000000000000000000, 0.7853981633974526089 ) ;
#163 = DIRECTION ( 'NONE',  ( -1.000000000000000000, -0.0000000000000000000, -0.0000000000000000000 ) ) ;
#164 = CARTESIAN_POINT ( 'NONE',  ( -46.22222222222222143, 0.0000000000000000000, 5.000000000000000000 ) ) ;
#165 = DIRECTION ( 'NONE',  ( 0.0000000000000000000, 0.0000000000000000000, 1.000000000000000000 ) ) ;
#166 = DIRECTION ( 'NONE',  ( 0.0000000000000000000, 0.0000000000000000000, 1.000000000000000000 ) ) ;
#167 = EDGE_LOOP ( 'NONE', ( #46, #128, #106, #135 ) ) ;
#168 = CARTESIAN_POINT ( 'NONE',  ( -5.517094017094020586, 0.0000000000000000000, 0.0000000000000000000 ) ) ;
#169 = EDGE_CURVE ( 'NONE', #175, #302, #313, .T. ) ;
#170 = DIRECTION ( 'NONE',  ( 0.0000000000000000000, 0.0000000000000000000, 1.000000000000000000 ) ) ;
#171 = PRESENTATION_LAYER_ASSIGNMENT (  '', '', ( #233 ) ) ;
#172 = DIRECTION ( 'NONE',  ( -1.000000000000000000, -0.0000000000000000000, -0.0000000000000000000 ) ) ;
#173 = PLANE ( 'NONE',  #214 ) ;
#174 = PRODUCT ( 'BRM 10x3', 'BRM 10x3', '', ( #219 ) ) ;
#175 = VERTEX_POINT ( 'NONE', #299 ) ;
#176 = MECHANICAL_DESIGN_GEOMETRIC_PRESENTATION_REPRESENTATION (  '', ( #233 ), #12 ) ;
#177 = ORIENTED_EDGE ( 'NONE', *, *, #81, .F. ) ;
#178 = VERTEX_POINT ( 'NONE', #125 ) ;
#179 = APPLICATION_PROTOCOL_DEFINITION ( 'draft international standard', 'automotive_design', 1998, #63 ) ;
#180 = ORIENTED_EDGE ( 'NONE', *, *, #139, .F. ) ;
#181 = EDGE_CURVE ( 'NONE', #265, #77, #141, .T. ) ;
#182 = VECTOR ( 'NONE', #64, 1000.000000000000000 ) ;
#183 = ORIENTED_EDGE ( 'NONE', *, *, #78, .T. ) ;
#184 = CARTESIAN_POINT ( 'NONE',  ( -5.517094017094020586, 6.123233995736766282E-16, -5.000000000000000000 ) ) ;
#185 = PRODUCT_DEFINITION ( 'UNKNOWN', '', #271, #191 ) ;
#186 = FILL_AREA_STYLE_COLOUR ( '', #297 ) ;
#187 = DIRECTION ( 'NONE',  ( -1.000000000000000000, -0.0000000000000000000, -0.0000000000000000000 ) ) ;
#188 = VECTOR ( 'NONE', #258, 1000.000000000000000 ) ;
#189 = CARTESIAN_POINT ( 'NONE',  ( -46.22222222222222143, 1.347111479062088010E-15, -10.99999999999999645 ) ) ;
#190 = DIRECTION ( 'NONE',  ( -1.000000000000000000, -0.0000000000000000000, -0.0000000000000000000 ) ) ;
#191 = PRODUCT_DEFINITION_CONTEXT ( 'detailed design', #131, 'design' ) ;
#192 = ADVANCED_FACE ( 'NONE', ( #293 ), #267, .F. ) ;
#193 = ORIENTED_EDGE ( 'NONE', *, *, #181, .T. ) ;
#194 = DIRECTION ( 'NONE',  ( 1.000000000000000000, 0.0000000000000000000, 0.0000000000000000000 ) ) ;
#195 = CARTESIAN_POINT ( 'NONE',  ( 13.98290598290599185, 0.0000000000000000000, 0.0000000000000000000 ) ) ;
#196 = DIRECTION ( 'NONE',  ( 0.0000000000000000000, 0.0000000000000000000, -1.000000000000000000 ) ) ;
#197 = VECTOR ( 'NONE', #15, 1000.000000000000000 ) ;
#198 = STYLED_ITEM ( 'NONE', ( #300 ), #254 ) ;
#199 = CARTESIAN_POINT ( 'NONE',  ( -6.017094017094014369, 0.0000000000000000000, 0.0000000000000000000 ) ) ;
#200 = ORIENTED_EDGE ( 'NONE', *, *, #284, .T. ) ;
#201 = ORIENTED_EDGE ( 'NONE', *, *, #98, .T. ) ;
#202 = CIRCLE ( 'NONE', #108, 5.500000000000006217 ) ;
#203 = DIRECTION ( 'NONE',  ( 1.000000000000000000, -0.0000000000000000000, -0.0000000000000000000 ) ) ;
#204 =( NAMED_UNIT ( * ) SI_UNIT ( $, .STERADIAN. ) SOLID_ANGLE_UNIT ( ) );
#205 = ORIENTED_EDGE ( 'NONE', *, *, #169, .F. ) ;
#206 = CYLINDRICAL_SURFACE ( 'NONE', #210, 10.99999999999999645 ) ;
#207 = LINE ( 'NONE', #164, #43 ) ;
#208 = CARTESIAN_POINT ( 'NONE',  ( 13.98290598290599007, 0.0000000000000000000, 0.0000000000000000000 ) ) ;
#209 = AXIS2_PLACEMENT_3D ( 'NONE', #21, #3, #50 ) ;
#210 = AXIS2_PLACEMENT_3D ( 'NONE', #277, #58, #256 ) ;
#211 = CARTESIAN_POINT ( 'NONE',  ( 13.98290598290599185, 0.0000000000000000000, -5.500000000000006217 ) ) ;
#212 = DIRECTION ( 'NONE',  ( -1.000000000000000000, -0.0000000000000000000, -0.0000000000000000000 ) ) ;
#213 = DIRECTION ( 'NONE',  ( -1.000000000000000000, -0.0000000000000000000, -0.0000000000000000000 ) ) ;
#214 = AXIS2_PLACEMENT_3D ( 'NONE', #96, #22, #143 ) ;
#215 = CARTESIAN_POINT ( 'NONE',  ( -5.517094017094020586, 0.0000000000000000000, 0.0000000000000000000 ) ) ;
#216 = DIRECTION ( 'NONE',  ( 0.0000000000000000000, 0.0000000000000000000, -1.000000000000000000 ) ) ;
#217 = ADVANCED_FACE ( 'NONE', ( #264 ), #157, .F. ) ;
#218 = CARTESIAN_POINT ( 'NONE',  ( -5.517094017094020586, 0.0000000000000000000, 0.0000000000000000000 ) ) ;
#219 = PRODUCT_CONTEXT ( 'NONE', #63, 'mechanical' ) ;
#220 = PRODUCT_DEFINITION_SHAPE ( 'NONE', 'NONE',  #185 ) ;
#221 = ORIENTED_EDGE ( 'NONE', *, *, #284, .F. ) ;
#222 = ADVANCED_FACE ( 'NONE', ( #245, #102 ), #173, .F. ) ;
#223 = DIRECTION ( 'NONE',  ( 0.0000000000000000000, 0.0000000000000000000, 1.000000000000000000 ) ) ;
#224 = PRODUCT_RELATED_PRODUCT_CATEGORY ( 'part', '', ( #174 ) ) ;
#225 = ORIENTED_EDGE ( 'NONE', *, *, #4, .T. ) ;
#226 = AXIS2_PLACEMENT_3D ( 'NONE', #123, #47, #67 ) ;
#227 = SURFACE_STYLE_FILL_AREA ( #247 ) ;
#228 = EDGE_LOOP ( 'NONE', ( #200, #303 ) ) ;
#229 = EDGE_LOOP ( 'NONE', ( #8, #155, #274, #257 ) ) ;
#230 = CARTESIAN_POINT ( 'NONE',  ( 13.98290598290599007, 0.0000000000000000000, -5.500000000000005329 ) ) ;
#231 = CARTESIAN_POINT ( 'NONE',  ( -6.017094017094014369, 5.000000000000000000, 0.0000000000000000000 ) ) ;
#232 = CARTESIAN_POINT ( 'NONE',  ( -6.017094017094014369, 6.735557395310440051E-16, -5.499999999999998224 ) ) ;
#233 = STYLED_ITEM ( 'NONE', ( #283 ), #54 ) ;
#234 = SURFACE_STYLE_USAGE ( .BOTH. , #42 ) ;
#235 = AXIS2_PLACEMENT_3D ( 'NONE', #137, #44, #165 ) ;
#236 = EDGE_CURVE ( 'NONE', #56, #36, #311, .T. ) ;
#237 = DIRECTION ( 'NONE',  ( 0.0000000000000000000, 0.0000000000000000000, 1.000000000000000000 ) ) ;
#238 = ADVANCED_FACE ( 'NONE', ( #270 ), #19, .F. ) ;
#239 = DIRECTION ( 'NONE',  ( 0.0000000000000000000, 0.0000000000000000000, 1.000000000000000000 ) ) ;
#240 = ORIENTED_EDGE ( 'NONE', *, *, #244, .F. ) ;
#241 = DIRECTION ( 'NONE',  ( -1.000000000000000000, -0.0000000000000000000, -0.0000000000000000000 ) ) ;
#242 = AXIS2_PLACEMENT_3D ( 'NONE', #215, #49, #216 ) ;
#243 = DIRECTION ( 'NONE',  ( 0.0000000000000000000, 0.0000000000000000000, 1.000000000000000000 ) ) ;
#244 = EDGE_CURVE ( 'NONE', #26, #11, #278, .T. ) ;
#245 = FACE_BOUND ( 'NONE', #228, .T. ) ;
#246 = EDGE_CURVE ( 'NONE', #302, #126, #39, .T. ) ;
#247 = FILL_AREA_STYLE ('',( #51 ) ) ;
#248 = ORIENTED_EDGE ( 'NONE', *, *, #276, .F. ) ;
#249 = EDGE_CURVE ( 'NONE', #178, #175, #268, .T. ) ;
#250 = DIRECTION ( 'NONE',  ( 0.7071067811865444641, 8.659560562354969836E-17, 0.7071067811865505703 ) ) ;
#251 = EDGE_CURVE ( 'NONE', #126, #302, #295, .T. ) ;
#252 = FACE_OUTER_BOUND ( 'NONE', #167, .T. ) ;
#253 =( GEOMETRIC_REPRESENTATION_CONTEXT ( 3 ) GLOBAL_UNCERTAINTY_ASSIGNED_CONTEXT ( ( #287 ) ) GLOBAL_UNIT_ASSIGNED_CONTEXT ( ( #94, #53, #204 ) ) REPRESENTATION_CONTEXT ( 'NONE', 'WORKASPACE' ) );
#254 = ADVANCED_BREP_SHAPE_REPRESENTATION ( 'BRM 10x3', ( #54, #308 ), #253 ) ;
#255 = AXIS2_PLACEMENT_3D ( 'NONE', #116, #261, #118 ) ;
#256 = DIRECTION ( 'NONE',  ( 0.0000000000000000000, 0.0000000000000000000, 1.000000000000000000 ) ) ;
#257 = ORIENTED_EDGE ( 'NONE', *, *, #236, .F. ) ;
#258 = DIRECTION ( 'NONE',  ( -0.7071067811865444641, 8.659560562354969836E-17, -0.7071067811865505703 ) ) ;
#259 = CIRCLE ( 'NONE', #304, 5.000000000000000000 ) ;
#260 = DIRECTION ( 'NONE',  ( 0.0000000000000000000, 0.0000000000000000000, 1.000000000000000000 ) ) ;
#261 = DIRECTION ( 'NONE',  ( -1.000000000000000000, -0.0000000000000000000, -0.0000000000000000000 ) ) ;
#262 =( NAMED_UNIT ( * ) PLANE_ANGLE_UNIT ( ) SI_UNIT ( $, .RADIAN. ) );
#263 = AXIS2_PLACEMENT_3D ( 'NONE', #218, #146, #170 ) ;
#264 = FACE_OUTER_BOUND ( 'NONE', #95, .T. ) ;
#265 = VERTEX_POINT ( 'NONE', #6 ) ;
#266 = CARTESIAN_POINT ( 'NONE',  ( 13.98290598290599007, 0.0000000000000000000, 0.0000000000000000000 ) ) ;
#267 = CYLINDRICAL_SURFACE ( 'NONE', #298, 5.000000000000000000 ) ;
#268 = CIRCLE ( 'NONE', #132, 10.99999999999999645 ) ;
#269 = DIRECTION ( 'NONE',  ( -1.000000000000000000, 0.0000000000000000000, 0.0000000000000000000 ) ) ;
#270 = FACE_OUTER_BOUND ( 'NONE', #280, .T. ) ;
#271 = PRODUCT_DEFINITION_FORMATION_WITH_SPECIFIED_SOURCE ( 'ANY', '', #174, .NOT_KNOWN. ) ;
#272 = ORIENTED_EDGE ( 'NONE', *, *, #111, .T. ) ;
#273 = AXIS2_PLACEMENT_3D ( 'NONE', #18, #187, #138 ) ;
#274 = ORIENTED_EDGE ( 'NONE', *, *, #61, .T. ) ;
#275 = ORIENTED_EDGE ( 'NONE', *, *, #81, .T. ) ;
#276 = EDGE_CURVE ( 'NONE', #265, #26, #5, .T. ) ;
#277 = CARTESIAN_POINT ( 'NONE',  ( -46.22222222222222143, 0.0000000000000000000, 0.0000000000000000000 ) ) ;
#278 = CIRCLE ( 'NONE', #242, 5.000000000000000000 ) ;
#279 = CIRCLE ( 'NONE', #161, 5.000000000000000000 ) ;
#280 = EDGE_LOOP ( 'NONE', ( #240, #272, #31, #305 ) ) ;
#281 = FACE_OUTER_BOUND ( 'NONE', #158, .T. ) ;
#282 = EDGE_CURVE ( 'NONE', #11, #26, #259, .T. ) ;
#283 = PRESENTATION_STYLE_ASSIGNMENT (( #234 ) ) ;
#284 = EDGE_CURVE ( 'NONE', #159, #71, #202, .T. ) ;
#285 = VECTOR ( 'NONE', #250, 1000.000000000000000 ) ;
#286 = DIRECTION ( 'NONE',  ( 1.000000000000000000, 0.0000000000000000000, 0.0000000000000000000 ) ) ;
#287 = UNCERTAINTY_MEASURE_WITH_UNIT (LENGTH_MEASURE( 1.000000000000000082E-05 ), #94, 'distance_accuracy_value', 'NONE');
#288 = LINE ( 'NONE', #230, #197 ) ;
#289 =( GEOMETRIC_REPRESENTATION_CONTEXT ( 3 ) GLOBAL_UNCERTAINTY_ASSIGNED_CONTEXT ( ( #121 ) ) GLOBAL_UNIT_ASSIGNED_CONTEXT ( ( #76, #105, #103 ) ) REPRESENTATION_CONTEXT ( 'NONE', 'WORKASPACE' ) );
#290 = ORIENTED_EDGE ( 'NONE', *, *, #37, .F. ) ;
#291 = CARTESIAN_POINT ( 'NONE',  ( -6.017094017094014369, 0.0000000000000000000, 0.0000000000000000000 ) ) ;
#292 = ADVANCED_FACE ( 'NONE', ( #24 ), #296, .F. ) ;
#293 = FACE_OUTER_BOUND ( 'NONE', #68, .T. ) ;
#294 = ORIENTED_EDGE ( 'NONE', *, *, #236, .T. ) ;
#295 = CIRCLE ( 'NONE', #23, 10.99999999999999645 ) ;
#296 = CYLINDRICAL_SURFACE ( 'NONE', #147, 5.000000000000000000 ) ;
#297 = COLOUR_RGB ( '',0.7921568627450980005, 0.8196078431372548767, 0.9333333333333333481 ) ;
#298 = AXIS2_PLACEMENT_3D ( 'NONE', #45, #172, #239 ) ;
#299 = CARTESIAN_POINT ( 'NONE',  ( 13.98290598290599718, 1.347111479062088010E-15, -10.99999999999999645 ) ) ;
#300 = PRESENTATION_STYLE_ASSIGNMENT (( #28 ) ) ;
#301 = EDGE_CURVE ( 'NONE', #36, #56, #312, .T. ) ;
#302 = VERTEX_POINT ( 'NONE', #122 ) ;
#303 = ORIENTED_EDGE ( 'NONE', *, *, #139, .T. ) ;
#304 = AXIS2_PLACEMENT_3D ( 'NONE', #168, #269, #196 ) ;
#305 = ORIENTED_EDGE ( 'NONE', *, *, #61, .F. ) ;
#306 = CARTESIAN_POINT ( 'NONE',  ( -5.517094017094020586, 0.0000000000000000000, 5.000000000000000000 ) ) ;
#307 = CARTESIAN_POINT ( 'NONE',  ( 13.98290598290599718, 0.0000000000000000000, 0.0000000000000000000 ) ) ;
#308 = AXIS2_PLACEMENT_3D ( 'NONE', #30, #34, #112 ) ;
#309 = LINE ( 'NONE', #184, #188 ) ;
#310 = CYLINDRICAL_SURFACE ( 'NONE', #255, 10.99999999999999645 ) ;
#311 = CIRCLE ( 'NONE', #86, 5.499999999999998224 ) ;
#312 = CIRCLE ( 'NONE', #209, 5.499999999999998224 ) ;
#313 = LINE ( 'NONE', #189, #32 ) ;
#314 = CARTESIAN_POINT ( 'NONE',  ( -5.517094017094020586, 0.0000000000000000000, 5.000000000000000000 ) ) ;
ENDSEC;
END-ISO-10303-21;
